  0
SECTION
  2
HEADER
  9
$ACADVER
  1
AC1003
  9
$INSBASE
 10
0.000000
 20
0.000000
  9
$EXTMIN
 10
0.000000
 20
0.000000
  9
$EXTMAX
 10
840.000000
 20
594.000000
  9
$LIMMIN
 10
0.000000
 20
0.000000
  9
$LIMMAX
 10
840.000000
 20
594.000000
  9
$VIEWCTR
 10
420.000000
 20
297.000000
  9
$VIEWSIZE
 40
594.000000
  9
$PEXTMIN
 10
0.000000
 20
0.000000
 30
0.000000
  9
$PEXTMAX
 10
420.000000
 20
297.000000
 30
0.000000
  9
$SNAPMODE
 70
     0
  9
$SNAPUNIT
 10
1.000000
 20
1.000000
  9
$SNAPBASE
 10
0.000000
 20
0.000000
  9
$SNAPANG
 50
0.000000
  9
$SNAPISOPAIR
 70
     0
  9
$SNAPSTYLE
 70
     0
  9
$GRIDMODE
 70
     0
  9
$GRIDUNIT
 10
0.000000
 20
0.000000
  9
$ORTHOMODE
 70
     0
  9
$REGENMODE
 70
     1
  9
$FILLMODE
 70
     1
  9
$QTEXTMODE
 70
     0
  9
$DRAGMODE
 70
     2
  9
$LTSCALE
 40
0.500000
  9
$OSMODE
 70
     0
  9
$ATTMODE
 70
     1
  9
$TEXTSIZE
 40
0.200000
  9
$TRACEWID
 40
0.050000
  9
$TEXTSTYLE
  7
STANDARD
  9
$CLAYER
  8
0
  9
$CELTYPE
  6
BYLAYER
  9
$CECOLOR
 62
   256
  9
$DIMSCALE
 40
1.000000
  9
$DIMASZ
 40
1.000000
  9
$DIMEXO
 40
0.000000
  9
$DIMDLI
 40
0.500000
  9
$DIMRND
 40
0.000000
  9
$DIMDLE
 40
0.000000
  9
$DIMEXE
 40
0.000000
  9
$DIMTP
 40
0.000000
  9
$DIMTM
 40
0.000000
  9
$DIMTXT
 40
0.180000
  9
$DIMCEN
 40
0.000000
  9
$DIMTSZ
 40
0.000000
  9
$DIMTOL
 70
     0
  9
$DIMLIM
 70
     0
  9
$DIMTIH
 70
     1
  9
$DIMTOH
 70
     1
  9
$DIMSE1
 70
     0
  9
$DIMSE2
 70
     0
  9
$DIMTAD
 70
     0
  9
$DIMZIN
 70
     0
  9
$DIMBLK
  1

  9
$DIMASO
 70
     0
  9
$DIMSHO
 70
     0
  9
$DIMPOST
  1

  9
$DIMAPOST
  1

  9
$DIMALT
 70
     0
  9
$DIMALTD
 70
     0
  9
$DIMALTF
 40
25.400000
  9
$DIMLFAC
 40
1.000000
  9
$DIMTOFL
 70
     0
  9
$DIMTVP
 40
0.000000
  9
$DIMTIX
 70
     0
  9
$DIMSOXD
 70
     0
  9
$DIMSAH
 70
     0
  9
$DIMBLKL
  1

  9
$DIMBLKR
  1

  9
$LUNITS
 70
     2
  9
$LUPREC
 70
     2
  9
$AXISMODE
 70
     0
  9
$AXISUNIT
 10
1.000000
 20
1.000000
  9
$SKETCHINC
 40
0.000000
  9
$FILLETRAD
 40
0.000000
  9
$AUNITS
 70
     1
  9
$AUPREC
 70
     2
  9
$MENU
  1
ACAD
  9
$ELEVATION
 40
0.000000
  9
$THICKNESS
 40
0.000000
  9
$VIEWDIR
 10
0.000000
 20
0.000000
 30
1.000000
  9
$LIMCHECK
 70
     1
  9
$BLIPMODE
 70
     1
  9
$CHAMFERA
 40
0.000000
  9
$CHAMFERB
 40
0.000000
  9
$FASTZOOM
 70
     1
  9
$SKPOLY
 70
     0
  9
$TDCREATE
 40
0.000000
  9
$TDUPDATE
 40
0.000000
  9
$TDINDWG
 40
0.000000
  9
$TDUSRTIMER
 40
0.000000
  9
$USRTIMER
 70
     1
  9
$ANGBASE
 50
0.000000
  9
$ANGDIR
 70
     0
  9
$PDMODE
 70
     0
  9
$PDSIZE
 40
0.000000
  9
$PLINEWID
 40
0.000000
  9
$COORDS
 70
     2
  9
$USERI1
 70
     0
  9
$USERI2
 70
     0
  9
$USERI3
 70
     0
  9
$USERI4
 70
     0
  9
$USERI5
 70
     0
  9
$USERR1
 40
0.000000
  9
$USERR2
 40
0.000000
  9
$USERR3
 40
0.000000
  9
$USERR4
 40
0.000000
  9
$USERR5
 40
0.000000
  0
ENDSEC
  0
SECTION
  2
TABLES
  0
TABLE
  2
LTYPE
 70
     5
  0
LTYPE
  2
CONTINUOUS
 70
    64
  3
Solid line
 72
    65
 73
     0
 40
0.0
  0
LTYPE
  2
HIDDEN
 70
    64
  3
------------------------
 72
    65
 73
     2
 40
12.6
 49
8.4
 49
-4.2
  0
LTYPE
  2
DOT
 70
    64
  3
････････････････････････
 72
    65
 73
     2
 40
8.0
 49
6.0
 49
-2.0
  0
LTYPE
  2
DASHDOT
 70
    64
  3
--･--･--･--･--･--･--･--
 72
    65
 73
     4
 40
50.5
 49
30.0
 49
-9.0
 49
2.5
 49
-9.0
  0
LTYPE
  2
DIVIDE
 70
    64
  3
--･･--･･--･･--･･--･･--
 72
    65
 73
     6
 40
58.0
 49
30.0
 49
-9.0
 49
2.5
 49
-5.0
 49
2.5
 49
-9.0
  0
ENDTAB
  0
TABLE
  2
LAYER
 70
2
  0
LAYER
  2
1
 70
64
 62
7
  6
CONTINUOUS
  0
LAYER
  2
15
 70
64
 62
96
  6
CONTINUOUS
  0
ENDTAB
  0
TABLE
  2
STYLE
 70
     2
  0
STYLE
  2
STANDARD
 70
    64
 40
0.0
 41
1.0
 50
0.0
 71
     0
 42
0.2
  3
TXT
  4

  0
STYLE
  2
KANJI
 70
    64
 40
0.0
 41
1.0
 50
0.0
 71
     0
 42
0.2
  3
TXT
  4
BIGFONT
  0
ENDTAB
  0
TABLE
  2
VIEW
 70
     0
  0
ENDTAB
  0
ENDSEC
  0
SECTION
  2
BLOCKS
  0
ENDSEC
  0
SECTION
  2
ENTITIES
  0
LINE
  8
15
 62
96
  6
CONTINUOUS
 10
30.000000
 20
544.151584
 11
30.000000
 21
30.000000
  0
LINE
  8
15
 62
96
  6
CONTINUOUS
 10
30.000000
 20
30.000000
 11
800.227081
 21
30.000000
  0
LINE
  8
15
 62
96
  6
CONTINUOUS
 10
728.879008
 20
41.403554
 11
703.946332
 21
41.403554
  0
TEXT
  8
15
 62
96
  6
CONTINUOUS
 10
668.409370
 20
39.382282
 40
3.601062
 41
1.018519
  1
出入管理システム
  7
KANJI
 50
0.000000
 51
0.000000
  0
TEXT
  8
15
 62
96
  6
CONTINUOUS
 10
668.550527
 20
31.618634
 40
7.202123
 41
1.782407
  1
株式会社
  7
KANJI
 50
0.000000
 51
0.000000
  0
LINE
  8
15
 62
96
  6
CONTINUOUS
 10
628.756797
 20
31.757640
 11
635.092369
 21
31.757640
  0
LINE
  8
15
 62
96
  6
CONTINUOUS
 10
666.038375
 20
39.457096
 11
666.038375
 21
41.888499
  0
LINE
  8
15
 62
96
  6
CONTINUOUS
 10
663.404362
 20
39.457096
 11
666.038375
 21
39.457096
  0
LINE
  8
15
 62
96
  6
CONTINUOUS
 10
663.404362
 20
31.757640
 11
663.404362
 21
39.457096
  0
LINE
  8
15
 62
96
  6
CONTINUOUS
 10
660.567717
 20
31.757640
 11
663.404362
 21
31.757640
  0
LINE
  8
15
 62
96
  6
CONTINUOUS
 10
658.863116
 20
31.757640
 11
655.299669
 21
31.757640
  0
LINE
  8
15
 62
96
  6
CONTINUOUS
 10
640.508608
 20
31.757640
 11
649.221143
 21
31.757640
  0
LINE
  8
15
 62
96
  6
CONTINUOUS
 10
640.508608
 20
36.012600
 11
640.508608
 21
31.757640
  0
LINE
  8
15
 62
96
  6
CONTINUOUS
 10
635.092369
 20
31.757640
 11
644.966187
 21
41.533696
  0
LINE
  8
15
 62
96
  6
CONTINUOUS
 10
644.966187
 20
41.533696
 11
644.966187
 21
36.012600
  0
LINE
  8
15
 62
96
  6
CONTINUOUS
 10
644.966187
 20
36.012600
 11
640.508608
 21
36.012600
  0
LINE
  8
15
 62
96
  6
CONTINUOUS
 10
649.221143
 20
37.430920
 11
655.299669
 21
31.757640
  0
ARC
  8
15
 62
96
  6
CONTINUOUS
 10
654.083963
 20
38.444008
 40
1.013088
 50
-90.000000
 51
90.000000
  0
LINE
  8
15
 62
96
  6
CONTINUOUS
 10
649.221143
 20
37.430920
 11
654.083963
 21
37.430920
  0
LINE
  8
15
 62
96
  6
CONTINUOUS
 10
650.031617
 20
39.457096
 11
654.083963
 21
39.457096
  0
LINE
  8
15
 62
96
  6
CONTINUOUS
 10
650.031617
 20
41.888499
 11
650.031617
 21
39.457096
  0
LINE
  8
15
 62
96
  6
CONTINUOUS
 10
650.031617
 20
41.888499
 11
654.851778
 21
41.888499
  0
ARC
  8
15
 62
96
  6
CONTINUOUS
 10
654.467866
 20
38.444008
 40
3.465820
 50
-76.055153
 51
83.640296
  0
LINE
  8
15
 62
96
  6
CONTINUOUS
 10
655.299669
 20
35.083527
 11
658.863116
 21
31.757640
  0
LINE
  8
15
 62
96
  6
CONTINUOUS
 10
666.038375
 20
41.888499
 11
657.933686
 21
41.888499
  0
LINE
  8
15
 62
96
  6
CONTINUOUS
 10
657.933686
 20
41.888499
 11
657.933686
 21
39.457096
  0
LINE
  8
15
 62
96
  6
CONTINUOUS
 10
657.933686
 20
39.457096
 11
660.567717
 21
39.457096
  0
LINE
  8
15
 62
96
  6
CONTINUOUS
 10
660.567717
 20
39.457096
 11
660.567717
 21
31.757640
  0
TEXT
  8
15
 62
96
  6
CONTINUOUS
 10
621.036305
 20
95.928688
 40
5.001474
 41
0.900000
  1
製品名
  7
KANJI
 50
0.000000
 51
0.000000
  0
LINE
  8
15
 62
96
  6
CONTINUOUS
 10
620.173997
 20
30.000000
 11
620.173997
 21
120.026556
  0
LINE
  8
15
 62
96
  6
CONTINUOUS
 10
620.173997
 20
102.021247
 11
800.227081
 21
102.021247
  0
LINE
  8
15
 62
96
  6
CONTINUOUS
 10
620.173997
 20
102.021234
 11
800.227081
 21
102.021247
  0
LINE
  8
15
 62
96
  6
CONTINUOUS
 10
800.227081
 20
54.007092
 11
620.173997
 21
54.007078
  0
TEXT
  8
15
 62
96
  6
CONTINUOUS
 10
621.665981
 20
78.177051
 40
5.001474
 41
0.900000
  1
縮尺（Ａ３）
  7
KANJI
 50
0.000000
 51
0.000000
  0
LINE
  8
15
 62
96
  6
CONTINUOUS
 10
650.182845
 20
66.010619
 11
650.182845
 21
54.007080
  0
LINE
  8
15
 62
96
  6
CONTINUOUS
 10
649.221143
 20
31.757640
 11
649.221143
 21
52.019363
  0
LINE
  8
15
 62
96
  6
CONTINUOUS
 10
649.221143
 20
52.019363
 11
628.756797
 21
31.757640
  0
LINE
  8
15
 62
96
  6
CONTINUOUS
 10
648.687832
 20
51.491333
 11
649.221143
 21
51.491333
  0
TEXT
  8
15
 62
96
  6
CONTINUOUS
 10
733.224966
 20
30.773985
 40
20.005898
 41
0.833333
  1
アート
  7
KANJI
 50
0.000000
 51
0.000000
  0
TEXT
  8
15
 62
96
  6
CONTINUOUS
 10
624.450470
 20
57.026766
 40
5.001474
 41
0.900000
  1
図面番号
  7
KANJI
 50
0.000000
 51
0.000000
  0
TEXT
  8
15
 62
96
  6
CONTINUOUS
 10
752.320241
 20
77.711739
 40
5.001474
 41
0.900000
  1
作図
  7
KANJI
 50
0.000000
 51
0.000000
  0
LINE
  8
15
 62
96
  6
CONTINUOUS
 10
650.182845
 20
84.015925
 11
650.182845
 21
66.010619
  0
LINE
  8
15
 62
96
  6
CONTINUOUS
 10
700.197590
 20
84.015925
 11
700.197590
 21
66.010623
  0
LINE
  8
15
 62
96
  6
CONTINUOUS
 10
750.212336
 20
84.015925
 11
750.212336
 21
66.010627
  0
LINE
  8
15
 62
96
  6
CONTINUOUS
 10
620.173997
 20
533.148340
 11
800.227081
 21
533.148340
  0
LINE
  8
15
 62
96
  6
CONTINUOUS
 10
620.173997
 20
544.151584
 11
620.173997
 21
145.033928
  0
LINE
  8
15
 62
96
  6
CONTINUOUS
 10
620.173997
 20
120.026556
 11
620.173997
 21
145.033928
  0
TEXT
  8
15
 62
96
  6
DIVIDE
 10
630.176946
 20
535.649077
 40
6.001769
 41
0.833333
  1
商品コード
  7
KANJI
 50
0.000000
 51
0.000000
  0
LINE
  8
15
 62
96
  6
CONTINUOUS
 10
800.220119
 20
290.869593
 11
800.220119
 21
295.133722
  0
LINE
  8
15
 62
96
  6
CONTINUOUS
 10
30.000000
 20
544.151584
 11
800.227600
 21
544.151584
  0
LINE
  8
15
 62
96
  6
CONTINUOUS
 10
800.227600
 20
29.999354
 11
800.227600
 21
544.150938
  0
TEXT
  8
15
 62
96
  6
CONTINUOUS
 10
621.035263
 20
113.255697
 40
5.001474
 41
0.900000
  1
型　式
  7
KANJI
 50
0.000000
 51
0.000000
  0
LINE
  8
15
 62
96
  6
CONTINUOUS
 10
620.172955
 20
119.026247
 11
800.226039
 21
119.026247
  0
LINE
  8
15
 62
96
  6
CONTINUOUS
 10
620.172955
 20
130.029491
 11
800.226039
 21
130.029491
  0
TEXT
  8
15
 62
96
  6
CONTINUOUS
 10
632.576612
 20
121.526984
 40
6.001769
 41
0.944444
  1
図面履歴
  7
KANJI
 50
-0.000000
 51
0.000000
  0
LINE
  8
15
 62
96
  6
CONTINUOUS
 10
620.172955
 20
119.026247
 11
800.226039
 21
119.026247
  0
LINE
  8
15
 62
96
  6
CONTINUOUS
 10
670.187701
 20
130.029491
 11
670.187701
 21
119.026247
  0
LINE
  8
15
 62
96
  6
CONTINUOUS
 10
620.172955
 20
119.026247
 11
800.226039
 21
119.026247
  0
LINE
  8
15
 62
96
  6
CONTINUOUS
 10
710.241002
 20
66.007085
 11
710.241002
 21
54.007085
  0
LINE
  8
15
 62
96
  6
CONTINUOUS
 10
724.241002
 20
66.007095
 11
724.241002
 21
54.007095
  0
TEXT
  8
15
 62
96
  6
CONTINUOUS
 10
712.264335
 20
57.242959
 40
5.000000
 41
0.900000
  1
日付
  7
KANJI
 50
0.000000
 51
0.000000
  0
LINE
  8
15
 62
96
  6
CONTINUOUS
 10
776.227081
 20
66.007090
 11
776.227081
 21
54.007090
  0
LINE
  8
15
 62
96
  6
CONTINUOUS
 10
782.328460
 20
64.487090
 11
782.328460
 21
55.527090
  0
CIRCLE
  8
15
 62
96
  6
CONTINUOUS
 10
782.328460
 20
60.007090
 40
1.920000
  0
CIRCLE
  8
15
 62
96
  6
CONTINUOUS
 10
782.328460
 20
60.007090
 40
3.200000
  0
LINE
  8
15
 62
96
  6
CONTINUOUS
 10
787.607002
 20
61.927090
 11
787.607002
 21
58.087090
  0
LINE
  8
15
 62
96
  6
CONTINUOUS
 10
797.847002
 20
63.207090
 11
797.847002
 21
56.807090
  0
LINE
  8
15
 62
96
  6
CONTINUOUS
 10
787.607002
 20
61.927090
 11
797.847002
 21
63.207090
  0
LINE
  8
15
 62
96
  6
CONTINUOUS
 10
787.607002
 20
58.087090
 11
797.847002
 21
56.807090
  0
LINE
  8
15
 62
96
  6
CONTINUOUS
 10
777.848460
 20
60.007090
 11
798.939002
 21
60.007090
  0
TEXT
  8
15
 62
96
  6
CONTINUOUS
 10
651.605163
 20
78.365937
 40
5.001474
 41
0.900000
  1
承認
  7
KANJI
 50
0.000000
 51
0.000000
  0
TEXT
  8
15
 62
96
  6
CONTINUOUS
 10
701.619909
 20
78.365937
 40
5.001474
 41
0.900000
  1
検図
  7
KANJI
 50
0.000000
 51
0.000000
  0
TEXT
  8
15
 62
96
  6
CONTINUOUS
 10
720.835107
 20
69.141220
 40
10.002949
 41
0.900000
  1
辻
  7
KANJI
 50
0.000000
 51
0.000000
  0
TEXT
  8
15
 62
96
  6
CONTINUOUS
 10
664.974161
 20
69.141220
 40
10.002949
 41
0.900000
  1
仲代
  7
KANJI
 50
0.000000
 51
0.000000
  0
LINE
  8
15
 62
96
  6
CONTINUOUS
 10
800.227600
 20
66.010630
 11
620.173997
 21
66.010617
  0
LINE
  8
15
 62
96
  6
CONTINUOUS
 10
620.173997
 20
84.015925
 11
800.227600
 21
84.015925
  0
TEXT
  8
15
 62
96
  6
CONTINUOUS
 10
767.671106
 20
69.141220
 40
10.002949
 41
0.900000
  1
細川
  7
KANJI
 50
0.000000
 51
0.000000
  0
TEXT
  8
15
 62
96
  6
CONTINUOUS
 10
386.140130
 20
29.869057
 40
8.000000
 41
0.833333
  1
　
  7
KANJI
 50
0.000000
 51
0.000000
  0
TEXT
  8
15
 62
96
  6
CONTINUOUS
 10
728.811045
 20
56.887915
 40
6.001769
 41
0.603448
  1
2007年09月06日
  7
KANJI
 50
0.000000
 51
0.000000
  0
LINE
  8
1
 62
7
  6
DOT
 10
400.205882
 20
216.415541
 11
400.205882
 21
171.415541
  0
LINE
  8
1
 62
7
  6
DOT
 10
257.205882
 20
216.415541
 11
257.205882
 21
171.415541
  0
LINE
  8
1
 62
7
  6
DOT
 10
400.205882
 20
196.415541
 11
398.605882
 21
196.415541
  0
LINE
  8
1
 62
7
  6
DOT
 10
398.605882
 20
196.415541
 11
398.605882
 21
204.815541
  0
ARC
  8
1
 62
7
  6
DOT
 10
398.605882
 20
204.815541
 40
1.600000
 50
0.000000
 51
90.000000
  0
ARC
  8
1
 62
7
  6
DOT
 10
258.805882
 20
204.815541
 40
1.600000
 50
90.000000
 51
180.000000
  0
LINE
  8
1
 62
7
  6
DOT
 10
257.205882
 20
196.415541
 11
258.805882
 21
196.415541
  0
LINE
  8
1
 62
7
  6
DOT
 10
258.805882
 20
196.415541
 11
258.805882
 21
204.815541
  0
LINE
  8
1
 62
7
  6
DOT
 10
258.805882
 20
204.815541
 11
398.605882
 21
204.815541
  0
CIRCLE
  8
1
 62
7
  6
CONTINUOUS
 10
308.705882
 20
201.415541
 40
2.500000
  0
LINE
  8
1
 62
7
  6
DASHDOT
 10
304.360179
 20
201.415541
 11
313.268666
 21
201.415541
  0
CIRCLE
  8
1
 62
7
  6
CONTINUOUS
 10
348.705882
 20
201.415541
 40
2.500000
  0
LINE
  8
1
 62
7
  6
DASHDOT
 10
344.360179
 20
201.415541
 11
353.268666
 21
201.415541
  0
LINE
  8
1
 62
7
  6
DOT
 10
490.305882
 20
216.415541
 11
490.305882
 21
171.415541
  0
LINE
  8
1
 62
7
  6
CONTINUOUS
 10
158.705882
 20
196.415541
 11
160.305882
 21
196.415541
  0
LINE
  8
1
 62
7
  6
DOT
 10
157.105882
 20
216.415541
 11
157.105882
 21
171.415541
  0
LINE
  8
1
 62
7
  6
CONTINUOUS
 10
488.705882
 20
196.415541
 11
487.105882
 21
196.415541
  0
LINE
  8
1
 62
7
  6
CONTINUOUS
 10
68.305882
 20
216.415541
 11
68.305882
 21
171.415541
  0
LINE
  8
1
 62
7
  6
DOT
 10
152.205882
 20
204.815541
 11
73.205882
 21
204.815541
  0
LINE
  8
1
 62
7
  6
CONTINUOUS
 10
488.705882
 20
216.415541
 11
488.705882
 21
171.415541
  0
LINE
  8
1
 62
7
  6
CONTINUOUS
 10
488.705882
 20
171.415541
 11
580.705882
 21
171.415541
  0
LINE
  8
1
 62
7
  6
CONTINUOUS
 10
580.705882
 20
171.415541
 11
580.705882
 21
216.415541
  0
LINE
  8
1
 62
7
  6
CONTINUOUS
 10
580.705882
 20
216.415541
 11
488.705882
 21
216.415541
  0
LINE
  8
1
 62
7
  6
CONTINUOUS
 10
579.105882
 20
216.415541
 11
579.105882
 21
171.415541
  0
LINE
  8
1
 62
7
  6
DOT
 10
495.205882
 20
204.815541
 11
574.205882
 21
204.815541
  0
LINE
  8
1
 62
7
  6
DASHDOT
 10
308.705882
 20
204.983876
 11
308.705882
 21
196.815541
  0
LINE
  8
1
 62
7
  6
DASHDOT
 10
348.705882
 20
204.983876
 11
348.705882
 21
196.815541
  0
LINE
  8
1
 62
7
  6
CONTINUOUS
 10
158.705882
 20
216.415541
 11
158.705882
 21
171.415541
  0
LINE
  8
1
 62
7
  6
CONTINUOUS
 10
66.705882
 20
171.415541
 11
66.705882
 21
216.415541
  0
LINE
  8
1
 62
7
  6
CONTINUOUS
 10
66.705882
 20
216.415541
 11
158.705882
 21
216.415541
  0
LINE
  8
1
 62
7
  6
CONTINUOUS
 10
86.705882
 20
171.415541
 11
66.705882
 21
171.415541
  0
LINE
  8
1
 62
7
  6
CONTINUOUS
 10
158.705882
 20
171.415541
 11
86.705882
 21
171.415541
  0
LINE
  8
1
 62
7
  6
CONTINUOUS
 10
488.705882
 20
225.015541
 11
488.705882
 21
196.415541
  0
LINE
  8
1
 62
7
  6
CONTINUOUS
 10
94.405882
 20
192.215541
 11
89.005882
 21
192.215541
  0
LINE
  8
1
 62
7
  6
CONTINUOUS
 10
89.005882
 20
192.215541
 11
89.005882
 21
182.615541
  0
LINE
  8
1
 62
7
  6
CONTINUOUS
 10
89.005882
 20
182.615541
 11
94.405882
 21
182.615541
  0
LINE
  8
1
 62
7
  6
CONTINUOUS
 10
94.405882
 20
182.615541
 11
94.405882
 21
192.215541
  0
LINE
  8
1
 62
7
  6
CONTINUOUS
 10
93.605882
 20
183.415541
 11
93.605882
 21
191.415541
  0
LINE
  8
1
 62
7
  6
CONTINUOUS
 10
93.605882
 20
191.415541
 11
89.805882
 21
191.415541
  0
LINE
  8
1
 62
7
  6
CONTINUOUS
 10
89.805882
 20
191.415541
 11
89.805882
 21
183.415541
  0
LINE
  8
1
 62
7
  6
CONTINUOUS
 10
89.805882
 20
183.415541
 11
93.605882
 21
183.415541
  0
CIRCLE
  8
1
 62
7
  6
CONTINUOUS
 10
91.705882
 20
185.315541
 40
0.700000
  0
CIRCLE
  8
1
 62
7
  6
CONTINUOUS
 10
91.705882
 20
185.315541
 40
1.500000
  0
CIRCLE
  8
1
 62
7
  6
CONTINUOUS
 10
91.705882
 20
189.515541
 40
0.700000
  0
CIRCLE
  8
1
 62
7
  6
CONTINUOUS
 10
91.705882
 20
189.515541
 40
1.500000
  0
LINE
  8
1
 62
7
  6
CONTINUOUS
 10
114.405882
 20
192.215541
 11
109.005882
 21
192.215541
  0
LINE
  8
1
 62
7
  6
CONTINUOUS
 10
109.005882
 20
192.215541
 11
109.005882
 21
182.615541
  0
LINE
  8
1
 62
7
  6
CONTINUOUS
 10
109.005882
 20
182.615541
 11
114.405882
 21
182.615541
  0
LINE
  8
1
 62
7
  6
CONTINUOUS
 10
114.405882
 20
182.615541
 11
114.405882
 21
192.215541
  0
LINE
  8
1
 62
7
  6
CONTINUOUS
 10
113.605882
 20
183.415541
 11
113.605882
 21
191.415541
  0
LINE
  8
1
 62
7
  6
CONTINUOUS
 10
113.605882
 20
191.415541
 11
109.805882
 21
191.415541
  0
LINE
  8
1
 62
7
  6
CONTINUOUS
 10
109.805882
 20
191.415541
 11
109.805882
 21
183.415541
  0
LINE
  8
1
 62
7
  6
CONTINUOUS
 10
109.805882
 20
183.415541
 11
113.605882
 21
183.415541
  0
CIRCLE
  8
1
 62
7
  6
CONTINUOUS
 10
111.705882
 20
185.315541
 40
0.700000
  0
CIRCLE
  8
1
 62
7
  6
CONTINUOUS
 10
111.705882
 20
185.315541
 40
1.500000
  0
CIRCLE
  8
1
 62
7
  6
CONTINUOUS
 10
111.705882
 20
189.515541
 40
0.700000
  0
CIRCLE
  8
1
 62
7
  6
CONTINUOUS
 10
111.705882
 20
189.515541
 40
1.500000
  0
LINE
  8
1
 62
7
  6
DOT
 10
488.705882
 20
285.015541
 11
488.705882
 21
225.015541
  0
LINE
  8
1
 62
7
  6
CONTINUOUS
 10
366.705882
 20
182.915541
 11
384.705882
 21
182.915541
  0
LINE
  8
1
 62
7
  6
CONTINUOUS
 10
384.705882
 20
182.915541
 11
384.705882
 21
193.915541
  0
LINE
  8
1
 62
7
  6
CONTINUOUS
 10
384.705882
 20
193.915541
 11
366.705882
 21
193.915541
  0
LINE
  8
1
 62
7
  6
CONTINUOUS
 10
366.705882
 20
193.915541
 11
366.705882
 21
182.915541
  0
ARC
  8
1
 62
7
  6
DOT
 10
266.355044
 20
187.291532
 40
2.500000
 50
-90.000000
 51
90.000000
  0
ARC
  8
1
 62
7
  6
DOT
 10
306.355044
 20
187.291532
 40
2.500000
 50
90.000000
 51
-90.000000
  0
LINE
  8
1
 62
7
  6
CONTINUOUS
 10
89.205882
 20
195.322982
 11
94.205882
 21
195.322982
  0
LINE
  8
1
 62
7
  6
CONTINUOUS
 10
94.205882
 20
195.322982
 11
94.205882
 21
203.322982
  0
LINE
  8
1
 62
7
  6
CONTINUOUS
 10
94.205882
 20
203.322982
 11
89.205882
 21
203.322982
  0
LINE
  8
1
 62
7
  6
CONTINUOUS
 10
89.205882
 20
203.322982
 11
89.205882
 21
195.322982
  0
TEXT
  8
1
 62
7
  6
CONTINUOUS
 10
109.705882
 20
202.396508
 40
4.000000
 41
0.500000
  1
BT1
  7
KANJI
 50
-90.000000
 51
0.000000
  0
LINE
  8
1
 62
7
  6
CONTINUOUS
 10
109.205882
 20
195.322982
 11
114.205882
 21
195.322982
  0
LINE
  8
1
 62
7
  6
CONTINUOUS
 10
114.205882
 20
195.322982
 11
114.205882
 21
203.322982
  0
LINE
  8
1
 62
7
  6
CONTINUOUS
 10
114.205882
 20
203.322982
 11
109.205882
 21
203.322982
  0
LINE
  8
1
 62
7
  6
CONTINUOUS
 10
109.205882
 20
203.322982
 11
109.205882
 21
195.322982
  0
TEXT
  8
1
 62
7
  6
CONTINUOUS
 10
89.705882
 20
202.396508
 40
4.000000
 41
0.500000
  1
BT2
  7
KANJI
 50
-90.000000
 51
0.000000
  0
LINE
  8
1
 62
7
  6
DASHDOT
 10
266.355044
 20
190.326031
 11
266.355044
 21
183.794053
  0
LINE
  8
1
 62
7
  6
DASHDOT
 10
262.978601
 20
187.291532
 11
269.679513
 21
187.291532
  0
CIRCLE
  8
1
 62
7
  6
CONTINUOUS
 10
266.355044
 20
187.291532
 40
2.400000
  0
CIRCLE
  8
1
 62
7
  6
CONTINUOUS
 10
266.355044
 20
187.291532
 40
3.000000
  0
LINE
  8
1
 62
7
  6
CONTINUOUS
 10
264.988581
 20
187.291532
 11
267.948218
 21
187.291532
  0
LINE
  8
1
 62
7
  6
CONTINUOUS
 10
266.355044
 20
188.655904
 11
266.355044
 21
186.031320
  0
LINE
  8
1
 62
7
  6
DASHDOT
 10
306.455779
 20
190.326031
 11
306.455779
 21
183.794053
  0
LINE
  8
1
 62
7
  6
DASHDOT
 10
303.079337
 20
187.291532
 11
309.780248
 21
187.291532
  0
CIRCLE
  8
1
 62
7
  6
CONTINUOUS
 10
306.455779
 20
187.291532
 40
2.400000
  0
CIRCLE
  8
1
 62
7
  6
CONTINUOUS
 10
306.455779
 20
187.291532
 40
3.000000
  0
LINE
  8
1
 62
7
  6
CONTINUOUS
 10
305.089317
 20
187.291532
 11
308.048953
 21
187.291532
  0
LINE
  8
1
 62
7
  6
CONTINUOUS
 10
306.455779
 20
188.655904
 11
306.455779
 21
186.031320
  0
LINE
  8
1
 62
7
  6
CONTINUOUS
 10
145.305882
 20
225.015541
 11
160.305882
 21
225.015541
  0
LINE
  8
1
 62
7
  6
DOT
 10
158.705882
 20
285.015541
 11
158.705882
 21
225.015541
  0
LINE
  8
1
 62
7
  6
CONTINUOUS
 10
158.705882
 20
225.015541
 11
158.705882
 21
196.415541
  0
CIRCLE
  8
1
 62
7
  6
CONTINUOUS
 10
308.705882
 20
201.415541
 40
1.500000
  0
CIRCLE
  8
1
 62
7
  6
CONTINUOUS
 10
348.705882
 20
201.415541
 40
1.500000
  0
LINE
  8
1
 62
7
  6
CONTINUOUS
 10
368.705882
 20
310.015541
 11
288.705882
 21
310.015541
  0
LINE
  8
1
 62
7
  6
CONTINUOUS
 10
291.705882
 20
195.415541
 11
365.705882
 21
195.415541
  0
ARC
  8
1
 62
7
  6
CONTINUOUS
 10
365.705882
 20
198.415541
 40
3.000000
 50
-90.000000
 51
0.000000
  0
ARC
  8
1
 62
7
  6
CONTINUOUS
 10
291.705882
 20
198.415541
 40
3.000000
 50
180.000000
 51
-90.000000
  0
LINE
  8
1
 62
7
  6
CONTINUOUS
 10
368.705882
 20
198.415541
 11
368.705882
 21
225.015541
  0
LINE
  8
1
 62
7
  6
CONTINUOUS
 10
368.705882
 20
285.015541
 11
368.705882
 21
310.015541
  0
LINE
  8
1
 62
7
  6
CONTINUOUS
 10
288.705882
 20
310.015541
 11
288.705882
 21
285.015541
  0
LINE
  8
1
 62
7
  6
CONTINUOUS
 10
288.705882
 20
225.015541
 11
288.705882
 21
198.415541
  0
LINE
  8
1
 62
7
  6
CONTINUOUS
 10
288.705882
 20
285.015541
 11
255.705882
 21
285.015541
  0
LINE
  8
1
 62
7
  6
CONTINUOUS
 10
255.705882
 20
285.015541
 11
255.705882
 21
225.015541
  0
LINE
  8
1
 62
7
  6
CONTINUOUS
 10
255.705882
 20
225.015541
 11
288.705882
 21
225.015541
  0
LINE
  8
1
 62
7
  6
CONTINUOUS
 10
401.705882
 20
285.015541
 11
401.705882
 21
225.015541
  0
LINE
  8
1
 62
7
  6
CONTINUOUS
 10
401.705882
 20
225.015541
 11
368.705882
 21
225.015541
  0
LINE
  8
1
 62
7
  6
CONTINUOUS
 10
368.705882
 20
285.015541
 11
401.705882
 21
285.015541
  0
ARC
  8
1
 62
7
  6
CONTINUOUS
 10
488.705882
 20
308.415541
 40
1.600000
 50
90.000000
 51
180.000000
  0
LINE
  8
1
 62
7
  6
CONTINUOUS
 10
488.705882
 20
310.015541
 11
507.105882
 21
310.015541
  0
LINE
  8
1
 62
7
  6
CONTINUOUS
 10
507.105882
 20
310.015541
 11
507.105882
 21
308.415541
  0
LINE
  8
1
 62
7
  6
CONTINUOUS
 10
488.705882
 20
308.415541
 11
488.705882
 21
285.015541
  0
LINE
  8
1
 62
7
  6
CONTINUOUS
 10
507.105882
 20
308.415541
 11
488.705882
 21
308.415541
  0
LINE
  8
1
 62
7
  6
CONTINUOUS
 10
487.105882
 20
196.415541
 11
487.105882
 21
308.415541
  0
LINE
  8
1
 62
7
  6
CONTINUOUS
 10
487.105882
 20
285.015541
 11
502.105882
 21
285.015541
  0
ARC
  8
1
 62
7
  6
CONTINUOUS
 10
502.105882
 20
280.015541
 40
5.000000
 50
0.000000
 51
90.000000
  0
LINE
  8
1
 62
7
  6
CONTINUOUS
 10
507.105882
 20
280.015541
 11
507.105882
 21
230.015541
  0
LINE
  8
1
 62
7
  6
CONTINUOUS
 10
502.105882
 20
225.015541
 11
487.105882
 21
225.015541
  0
ARC
  8
1
 62
7
  6
CONTINUOUS
 10
502.105882
 20
230.015541
 40
5.000000
 50
-90.000000
 51
0.000000
  0
ARC
  8
1
 62
7
  6
CONTINUOUS
 10
158.705882
 20
308.415541
 40
1.600000
 50
0.000000
 51
90.000000
  0
LINE
  8
1
 62
7
  6
CONTINUOUS
 10
158.705882
 20
310.015541
 11
140.305882
 21
310.015541
  0
LINE
  8
1
 62
7
  6
CONTINUOUS
 10
140.305882
 20
310.015541
 11
140.305882
 21
308.415541
  0
LINE
  8
1
 62
7
  6
CONTINUOUS
 10
160.305882
 20
196.415541
 11
160.305882
 21
308.415541
  0
LINE
  8
1
 62
7
  6
CONTINUOUS
 10
160.305882
 20
285.015541
 11
145.305882
 21
285.015541
  0
LINE
  8
1
 62
7
  6
CONTINUOUS
 10
140.305882
 20
280.015541
 11
140.305882
 21
230.015541
  0
ARC
  8
1
 62
7
  6
CONTINUOUS
 10
145.305882
 20
280.015541
 40
5.000000
 50
90.000000
 51
180.000000
  0
LINE
  8
1
 62
7
  6
CONTINUOUS
 10
158.705882
 20
308.415541
 11
158.705882
 21
285.015541
  0
LINE
  8
1
 62
7
  6
CONTINUOUS
 10
140.305882
 20
308.415541
 11
158.705882
 21
308.415541
  0
ARC
  8
1
 62
7
  6
CONTINUOUS
 10
145.305882
 20
230.015541
 40
5.000000
 50
180.000000
 51
-90.000000
  0
LINE
  8
1
 62
7
  6
DOT
 10
574.205882
 20
206.415541
 11
495.205882
 21
206.415541
  0
LINE
  8
1
 62
7
  6
DOT
 10
574.205882
 20
204.815541
 11
574.205882
 21
206.415541
  0
LINE
  8
1
 62
7
  6
DOT
 10
495.205882
 20
206.415541
 11
495.205882
 21
204.815541
  0
LINE
  8
1
 62
7
  6
DOT
 10
580.705882
 20
206.415541
 11
490.705882
 21
206.415541
  0
LINE
  8
1
 62
7
  6
DOT
 10
490.705882
 20
216.415541
 11
490.705882
 21
206.415541
  0
LINE
  8
1
 62
7
  6
DOT
 10
152.205882
 20
206.415541
 11
152.205882
 21
204.815541
  0
LINE
  8
1
 62
7
  6
DOT
 10
73.205882
 20
204.815541
 11
73.205882
 21
206.415541
  0
LINE
  8
1
 62
7
  6
DOT
 10
66.705882
 20
206.415541
 11
156.705882
 21
206.415541
  0
LINE
  8
1
 62
7
  6
DOT
 10
73.205882
 20
206.415541
 11
152.205882
 21
206.415541
  0
LINE
  8
1
 62
7
  6
DOT
 10
156.705882
 20
216.415541
 11
156.705882
 21
206.415541
  0
LINE
  8
1
 62
7
  6
CONTINUOUS
 10
156.705882
 20
216.415541
 11
156.705882
 21
225.015541
  0
LINE
  8
1
 62
7
  6
CONTINUOUS
 10
156.705882
 20
285.015541
 11
156.705882
 21
308.415541
  0
LINE
  8
1
 62
7
  6
DOT
 10
288.705882
 20
308.415541
 11
368.705882
 21
308.415541
  0
LINE
  8
1
 62
7
  6
DOT
 10
399.705882
 20
285.015541
 11
399.705882
 21
225.015541
  0
LINE
  8
1
 62
7
  6
DOT
 10
257.705882
 20
285.015541
 11
257.705882
 21
225.015541
  0
LINE
  8
1
 62
7
  6
DOT
 10
257.705882
 20
216.415541
 11
257.705882
 21
206.415541
  0
LINE
  8
1
 62
7
  6
DOT
 10
257.705882
 20
206.415541
 11
328.705882
 21
206.415541
  0
LINE
  8
1
 62
7
  6
DOT
 10
398.605882
 20
206.415541
 11
258.805882
 21
206.415541
  0
LINE
  8
1
 62
7
  6
DOT
 10
328.705882
 20
206.415541
 11
399.705882
 21
206.415541
  0
LINE
  8
1
 62
7
  6
CONTINUOUS
 10
255.705882
 20
216.415541
 11
255.705882
 21
171.415541
  0
LINE
  8
1
 62
7
  6
CONTINUOUS
 10
255.705882
 20
171.415541
 11
401.705882
 21
171.415541
  0
LINE
  8
1
 62
7
  6
CONTINUOUS
 10
401.705882
 20
171.415541
 11
401.705882
 21
216.415541
  0
LINE
  8
1
 62
7
  6
CONTINUOUS
 10
288.705882
 20
216.415541
 11
255.705882
 21
216.415541
  0
LINE
  8
1
 62
7
  6
CONTINUOUS
 10
401.705882
 20
216.415541
 11
368.705882
 21
216.415541
  0
LINE
  8
1
 62
7
  6
DOT
 10
288.705882
 20
216.415541
 11
367.105882
 21
216.415541
  0
LINE
  8
1
 62
7
  6
DOT
 10
288.705882
 20
216.415541
 11
368.705882
 21
216.415541
  0
LINE
  8
1
 62
7
  6
CONTINUOUS
 10
298.233935
 20
177.695139
 11
324.257226
 21
177.695139
  0
LINE
  8
1
 62
7
  6
CONTINUOUS
 10
324.257226
 20
177.695139
 11
324.257226
 21
181.082786
  0
LINE
  8
1
 62
7
  6
CONTINUOUS
 10
324.257226
 20
181.082786
 11
298.233935
 21
181.082786
  0
LINE
  8
1
 62
7
  6
CONTINUOUS
 10
298.233935
 20
181.082786
 11
298.233935
 21
177.695139
  0
TEXT
  8
1
 62
7
  6
CONTINUOUS
 10
299.245580
 20
177.811971
 40
3.000000
 41
0.833333
  1
バッテリーの接続
  7
KANJI
 50
0.000000
 51
0.000000
  0
TEXT
  8
1
 62
7
  6
CONTINUOUS
 10
295.061490
 20
172.884021
 40
3.400000
 41
0.833333
  1
（工事完了後左側面のコネクターを差込みＳＷを入れてください）
  7
KANJI
 50
0.000000
 51
0.000000
  0
TEXT
  8
1
 62
7
  6
CONTINUOUS
 10
331.181214
 20
178.225248
 40
4.000000
 41
0.833333
  1
停電
  7
KANJI
 50
0.000000
 51
0.000000
  0
CIRCLE
  8
1
 62
7
  6
CONTINUOUS
 10
383.845722
 20
180.401303
 40
0.800000
  0
CIRCLE
  8
1
 62
7
  6
CONTINUOUS
 10
366.239457
 20
180.401303
 40
0.800000
  0
TEXT
  8
1
 62
7
  6
CONTINUOUS
 10
387.978241
 20
178.620894
 40
4.000000
 41
0.833333
  1
切
  7
KANJI
 50
0.000000
 51
0.000000
  0
TEXT
  8
1
 62
7
  6
CONTINUOUS
 10
358.700407
 20
178.620894
 40
4.000000
 41
0.833333
  1
入
  7
KANJI
 50
0.000000
 51
0.000000
  0
LINE
  8
1
 62
7
  6
CONTINUOUS
 10
396.276095
 20
171.415541
 11
396.276095
 21
182.915541
  0
LINE
  8
1
 62
7
  6
CONTINUOUS
 10
296.276095
 20
182.915541
 11
296.276095
 21
171.415541
  0
LINE
  8
1
 62
7
  6
CONTINUOUS
 10
396.276095
 20
182.915541
 11
296.276095
 21
182.915541
  0
LINE
  8
1
 62
7
  6
CONTINUOUS
 10
298.705150
 20
171.415541
 11
396.276095
 21
171.415541
  0
LINE
  8
1
 62
7
  6
CONTINUOUS
 10
348.259580
 20
180.398546
 11
357.952917
 21
180.398546
  0
LINE
  8
1
 62
7
  6
CONTINUOUS
 10
348.259580
 20
181.783308
 11
348.259580
 21
180.398546
  0
LINE
  8
1
 62
7
  6
CONTINUOUS
 10
350.455882
 20
187.043071
 11
350.455882
 21
192.396493
  0
LINE
  8
1
 62
7
  6
CONTINUOUS
 10
333.455882
 20
192.396493
 11
333.455882
 21
187.034590
  0
LINE
  8
1
 62
7
  6
CONTINUOUS
 10
345.955882
 20
193.215541
 11
345.955882
 21
186.215541
  0
LINE
  8
1
 62
7
  6
CONTINUOUS
 10
337.955882
 20
186.215541
 11
337.955882
 21
193.215541
  0
LINE
  8
1
 62
7
  6
CONTINUOUS
 10
335.705882
 20
186.215541
 11
348.205882
 21
186.215541
  0
LINE
  8
1
 62
7
  6
CONTINUOUS
 10
335.705882
 20
193.215541
 11
348.205882
 21
193.215541
  0
ARC
  8
1
 62
7
  6
CONTINUOUS
 10
348.205882
 20
189.715541
 40
3.500000
 50
-90.000000
 51
90.000000
  0
ARC
  8
1
 62
7
  6
CONTINUOUS
 10
335.705882
 20
189.715541
 40
3.500000
 50
90.000000
 51
-90.000000
  0
LINE
  8
1
 62
7
  6
CONTINUOUS
 10
343.798585
 20
189.715541
 11
351.975492
 21
189.715541
  0
LINE
  8
1
 62
7
  6
CONTINUOUS
 10
331.603715
 20
189.715541
 11
339.780622
 21
189.715541
  0
LINE
  8
1
 62
7
  6
CONTINUOUS
 10
348.488725
 20
187.735642
 11
350.185781
 21
189.432699
  0
LINE
  8
1
 62
7
  6
CONTINUOUS
 10
347.475420
 20
187.853708
 11
350.067716
 21
190.446004
  0
LINE
  8
1
 62
7
  6
CONTINUOUS
 10
346.791669
 20
188.301328
 11
349.620096
 21
191.129755
  0
LINE
  8
1
 62
7
  6
CONTINUOUS
 10
346.344049
 20
188.985079
 11
348.936345
 21
191.577375
  0
LINE
  8
1
 62
7
  6
CONTINUOUS
 10
346.225983
 20
189.998384
 11
347.923040
 21
191.695440
  0
CIRCLE
  8
1
 62
7
  6
CONTINUOUS
 10
348.205882
 20
189.715541
 40
2.000000
  0
LINE
  8
1
 62
7
  6
CONTINUOUS
 10
335.988725
 20
187.735642
 11
337.685781
 21
189.432699
  0
LINE
  8
1
 62
7
  6
CONTINUOUS
 10
334.975420
 20
187.853708
 11
337.567716
 21
190.446004
  0
LINE
  8
1
 62
7
  6
CONTINUOUS
 10
334.291669
 20
188.301328
 11
337.120096
 21
191.129755
  0
LINE
  8
1
 62
7
  6
CONTINUOUS
 10
333.844049
 20
188.985079
 11
336.436345
 21
191.577375
  0
LINE
  8
1
 62
7
  6
CONTINUOUS
 10
333.725983
 20
189.998384
 11
335.423040
 21
191.695440
  0
CIRCLE
  8
1
 62
7
  6
CONTINUOUS
 10
335.705882
 20
189.715541
 40
2.000000
  0
LINE
  8
1
 62
7
  6
CONTINUOUS
 10
383.433804
 20
183.415541
 11
383.705882
 21
183.687619
  0
LINE
  8
1
 62
7
  6
CONTINUOUS
 10
382.019591
 20
183.415541
 11
383.705882
 21
185.101833
  0
LINE
  8
1
 62
7
  6
CONTINUOUS
 10
380.605377
 20
183.415541
 11
383.705882
 21
186.516046
  0
LINE
  8
1
 62
7
  6
CONTINUOUS
 10
379.191164
 20
183.415541
 11
383.705882
 21
187.930260
  0
LINE
  8
1
 62
7
  6
CONTINUOUS
 10
377.776950
 20
183.415541
 11
383.705882
 21
189.344474
  0
LINE
  8
1
 62
7
  6
CONTINUOUS
 10
376.362737
 20
183.415541
 11
383.705882
 21
190.758687
  0
LINE
  8
1
 62
7
  6
CONTINUOUS
 10
374.948523
 20
183.415541
 11
383.705882
 21
192.172901
  0
LINE
  8
1
 62
7
  6
CONTINUOUS
 10
373.534309
 20
183.415541
 11
383.534309
 21
193.415541
  0
LINE
  8
1
 62
7
  6
CONTINUOUS
 10
372.120096
 20
183.415541
 11
382.120096
 21
193.415541
  0
LINE
  8
1
 62
7
  6
CONTINUOUS
 10
370.705882
 20
183.415541
 11
380.705882
 21
193.415541
  0
LINE
  8
1
 62
7
  6
CONTINUOUS
 10
369.291669
 20
183.415541
 11
379.291669
 21
193.415541
  0
LINE
  8
1
 62
7
  6
CONTINUOUS
 10
367.877455
 20
183.415541
 11
377.877455
 21
193.415541
  0
LINE
  8
1
 62
7
  6
CONTINUOUS
 10
367.705882
 20
184.658182
 11
376.463242
 21
193.415541
  0
LINE
  8
1
 62
7
  6
CONTINUOUS
 10
367.705882
 20
186.072396
 11
375.049028
 21
193.415541
  0
LINE
  8
1
 62
7
  6
CONTINUOUS
 10
367.705882
 20
187.486609
 11
373.634815
 21
193.415541
  0
LINE
  8
1
 62
7
  6
CONTINUOUS
 10
367.705882
 20
188.900823
 11
372.220601
 21
193.415541
  0
LINE
  8
1
 62
7
  6
CONTINUOUS
 10
367.705882
 20
190.315036
 11
370.806387
 21
193.415541
  0
LINE
  8
1
 62
7
  6
CONTINUOUS
 10
367.705882
 20
191.729250
 11
369.392174
 21
193.415541
  0
LINE
  8
1
 62
7
  6
CONTINUOUS
 10
367.705882
 20
193.143463
 11
367.977960
 21
193.415541
  0
LINE
  8
1
 62
7
  6
CONTINUOUS
 10
367.705882
 20
183.415541
 11
383.705882
 21
183.415541
  0
LINE
  8
1
 62
7
  6
CONTINUOUS
 10
383.705882
 20
183.415541
 11
383.705882
 21
193.415541
  0
LINE
  8
1
 62
7
  6
CONTINUOUS
 10
383.705882
 20
193.415541
 11
367.705882
 21
193.415541
  0
LINE
  8
1
 62
7
  6
CONTINUOUS
 10
367.705882
 20
193.415541
 11
367.705882
 21
183.415541
  0
LINE
  8
1
 62
7
  6
CONTINUOUS
 10
482.905882
 20
182.753569
 11
488.705882
 21
182.753569
  0
LINE
  8
1
 62
7
  6
CONTINUOUS
 10
482.905882
 20
193.215541
 11
482.905882
 21
182.753569
  0
LINE
  8
1
 62
7
  6
CONTINUOUS
 10
488.705882
 20
193.215541
 11
482.905882
 21
193.215541
  0
LINE
  8
1
 62
7
  6
DASHDOT
 10
248.705882
 20
182.471497
 11
248.705882
 21
175.484063
  0
CIRCLE
  8
1
 62
7
  6
CONTINUOUS
 10
248.705882
 20
179.009522
 40
2.419200
  0
LINE
  8
1
 62
7
  6
DASHDOT
 10
245.874579
 20
178.915541
 11
251.503345
 21
178.915541
  0
LINE
  8
1
 62
7
  6
DASHDOT
 10
244.293430
 20
208.915541
 11
252.047948
 21
208.915541
  0
LINE
  8
1
 62
7
  6
DASHDOT
 10
248.696884
 20
212.377516
 11
248.696884
 21
205.390083
  0
CIRCLE
  8
1
 62
7
  6
CONTINUOUS
 10
248.696884
 20
208.915541
 40
2.419200
  0
LINE
  8
1
 62
7
  6
CONTINUOUS
 10
244.337500
 20
171.745798
 11
255.605882
 21
171.415541
  0
LINE
  8
1
 62
7
  6
CONTINUOUS
 10
255.605882
 20
216.415541
 11
245.705882
 21
216.415541
  0
ARC
  8
1
 62
7
  6
CONTINUOUS
 10
245.705882
 20
213.415541
 40
3.000000
 50
90.000000
 51
180.000000
  0
ARC
  8
1
 62
7
  6
CONTINUOUS
 10
245.705882
 20
174.415541
 40
3.000000
 50
180.000000
 51
-90.000000
  0
LINE
  8
1
 62
7
  6
DASHDOT
 10
408.729890
 20
212.318995
 11
408.729890
 21
204.319271
  0
LINE
  8
1
 62
7
  6
DASHDOT
 10
412.191864
 20
208.915541
 11
405.204431
 21
208.915541
  0
CIRCLE
  8
1
 62
7
  6
CONTINUOUS
 10
408.729890
 20
208.915541
 40
2.419200
  0
ARC
  8
1
 62
7
  6
CONTINUOUS
 10
411.705882
 20
174.415541
 40
3.000000
 50
-90.000000
 51
0.000000
  0
LINE
  8
1
 62
7
  6
CONTINUOUS
 10
411.705882
 20
171.415541
 11
401.805882
 21
171.415541
  0
ARC
  8
1
 62
7
  6
CONTINUOUS
 10
411.705882
 20
213.415541
 40
3.000000
 50
0.000000
 51
90.000011
  0
LINE
  8
1
 62
7
  6
CONTINUOUS
 10
401.805882
 20
216.415541
 11
411.705882
 21
216.415541
  0
LINE
  8
1
 62
7
  6
DASHDOT
 10
405.326436
 20
178.949741
 11
413.326160
 21
178.949741
  0
LINE
  8
1
 62
7
  6
CONTINUOUS
 10
414.705882
 20
213.415541
 11
414.705882
 21
174.415541
  0
LINE
  8
1
 62
7
  6
DASHDOT
 10
408.729890
 20
182.411716
 11
408.729890
 21
175.424283
  0
CIRCLE
  8
1
 62
7
  6
CONTINUOUS
 10
408.729890
 20
178.949741
 40
2.419200
  0
LINE
  8
1
 62
7
  6
CONTINUOUS
 10
246.155804
 20
192.598633
 11
246.155804
 21
182.878016
  0
LINE
  8
1
 62
7
  6
CONTINUOUS
 10
246.155804
 20
182.878016
 11
255.705882
 21
182.878016
  0
LINE
  8
1
 62
7
  6
CONTINUOUS
 10
255.705882
 20
182.878016
 11
255.705882
 21
192.598633
  0
LINE
  8
1
 62
7
  6
CONTINUOUS
 10
255.705882
 20
192.598633
 11
246.155804
 21
192.598633
  0
ARC
  8
1
 62
7
  6
CONTINUOUS
 10
403.414844
 20
449.029305
 40
1.608434
 50
90.000000
 51
180.000000
  0
ARC
  8
1
 62
7
  6
CONTINUOUS
 10
256.444171
 20
449.029305
 40
1.608434
 50
0.000000
 51
90.000000
  0
ARC
  8
1
 62
7
  6
CONTINUOUS
 10
401.705882
 20
359.761208
 40
1.608434
 50
-90.000000
 51
0.000000
  0
LINE
  8
1
 62
7
  6
CONTINUOUS
 10
258.153132
 20
358.152774
 11
401.705882
 21
358.152774
  0
ARC
  8
1
 62
7
  6
CONTINUOUS
 10
258.153132
 20
359.761208
 40
1.608434
 50
180.000000
 51
-90.000000
  0
LINE
  8
1
 62
7
  6
CONTINUOUS
 10
401.806409
 20
449.029305
 11
401.806409
 21
359.761208
  0
LINE
  8
1
 62
7
  6
CONTINUOUS
 10
403.314317
 20
359.761208
 11
403.314317
 21
449.029305
  0
LINE
  8
1
 62
7
  6
CONTINUOUS
 10
243.476171
 20
450.637739
 11
243.476171
 21
449.029305
  0
LINE
  8
1
 62
7
  6
CONTINUOUS
 10
243.476171
 20
449.029305
 11
256.544698
 21
449.029305
  0
LINE
  8
1
 62
7
  6
CONTINUOUS
 10
256.544698
 20
450.637739
 11
243.476171
 21
450.637739
  0
LINE
  8
1
 62
7
  6
CONTINUOUS
 10
416.382844
 20
449.029305
 11
416.382844
 21
450.637739
  0
LINE
  8
1
 62
7
  6
CONTINUOUS
 10
403.314317
 20
449.029305
 11
416.382844
 21
449.029305
  0
LINE
  8
1
 62
7
  6
CONTINUOUS
 10
416.382844
 20
450.637739
 11
403.314317
 21
450.637739
  0
ARC
  8
1
 62
7
  6
DOT
 10
331.940050
 20
361.771751
 40
2.010543
 50
180.000000
 51
-90.000000
  0
ARC
  8
1
 62
7
  6
DOT
 10
327.918965
 20
361.771751
 40
2.010543
 50
-90.000000
 51
0.000000
  0
LINE
  8
1
 62
7
  6
CONTINUOUS
 10
401.806409
 20
359.761208
 11
360.087648
 21
359.761208
  0
LINE
  8
1
 62
7
  6
DOT
 10
331.940050
 20
359.761208
 11
360.087648
 21
359.761208
  0
LINE
  8
1
 62
7
  6
CONTINUOUS
 10
299.771367
 20
359.761208
 11
258.052605
 21
359.761208
  0
LINE
  8
1
 62
7
  6
DOT
 10
327.918965
 20
359.761208
 11
299.771367
 21
359.761208
  0
LINE
  8
1
 62
7
  6
DASHDOT
 10
363.597791
 20
367.803379
 11
391.109878
 21
367.803379
  0
LINE
  8
1
 62
7
  6
DOT
 10
378.082005
 20
366.549758
 11
387.129448
 21
366.549758
  0
LINE
  8
1
 62
7
  6
DOT
 10
378.082005
 20
369.283331
 11
387.129448
 21
369.283331
  0
LINE
  8
1
 62
7
  6
DOT
 10
378.082005
 20
364.284929
 11
387.129448
 21
364.284929
  0
LINE
  8
1
 62
7
  6
DOT
 10
378.082005
 20
371.321829
 11
378.082005
 21
364.284929
  0
LINE
  8
1
 62
7
  6
DOT
 10
387.129448
 20
371.321829
 11
378.082005
 21
371.321829
  0
LINE
  8
1
 62
7
  6
CONTINUOUS
 10
388.134719
 20
364.284929
 11
387.129448
 21
364.284929
  0
LINE
  8
1
 62
7
  6
CONTINUOUS
 10
388.134719
 20
371.321829
 11
388.134719
 21
364.284929
  0
LINE
  8
1
 62
7
  6
CONTINUOUS
 10
387.129448
 20
371.321829
 11
388.134719
 21
371.321829
  0
LINE
  8
1
 62
7
  6
DASHDOT
 10
292.805827
 20
442.595568
 11
265.293740
 21
442.595568
  0
LINE
  8
1
 62
7
  6
DOT
 10
278.321613
 20
441.341947
 11
269.274170
 21
441.341947
  0
LINE
  8
1
 62
7
  6
DOT
 10
278.321613
 20
444.075520
 11
269.274170
 21
444.075520
  0
LINE
  8
1
 62
7
  6
DOT
 10
278.321613
 20
439.077118
 11
269.274170
 21
439.077118
  0
LINE
  8
1
 62
7
  6
DOT
 10
278.321613
 20
446.114018
 11
278.321613
 21
439.077118
  0
LINE
  8
1
 62
7
  6
DOT
 10
269.274170
 20
446.114018
 11
278.321613
 21
446.114018
  0
LINE
  8
1
 62
7
  6
CONTINUOUS
 10
268.268899
 20
439.077118
 11
269.274170
 21
439.077118
  0
LINE
  8
1
 62
7
  6
CONTINUOUS
 10
268.268899
 20
446.114018
 11
268.268899
 21
439.077118
  0
LINE
  8
1
 62
7
  6
CONTINUOUS
 10
269.274170
 20
446.114018
 11
268.268899
 21
446.114018
  0
LINE
  8
1
 62
7
  6
DASHDOT
 10
292.805827
 20
367.803379
 11
265.293740
 21
367.803379
  0
LINE
  8
1
 62
7
  6
DOT
 10
278.321613
 20
366.549758
 11
269.274170
 21
366.549758
  0
LINE
  8
1
 62
7
  6
DOT
 10
278.321613
 20
369.283331
 11
269.274170
 21
369.283331
  0
LINE
  8
1
 62
7
  6
DOT
 10
278.321613
 20
364.284929
 11
269.274170
 21
364.284929
  0
LINE
  8
1
 62
7
  6
DOT
 10
278.321613
 20
371.321829
 11
278.321613
 21
364.284929
  0
LINE
  8
1
 62
7
  6
DOT
 10
269.274170
 20
371.321829
 11
278.321613
 21
371.321829
  0
LINE
  8
1
 62
7
  6
CONTINUOUS
 10
268.268899
 20
364.284929
 11
269.274170
 21
364.284929
  0
LINE
  8
1
 62
7
  6
CONTINUOUS
 10
268.268899
 20
371.321829
 11
268.268899
 21
364.284929
  0
LINE
  8
1
 62
7
  6
CONTINUOUS
 10
269.274170
 20
371.321829
 11
268.268899
 21
371.321829
  0
LINE
  8
1
 62
7
  6
DASHDOT
 10
363.597791
 20
442.595568
 11
391.109878
 21
442.595568
  0
LINE
  8
1
 62
7
  6
DOT
 10
378.082005
 20
441.341947
 11
387.129448
 21
441.341947
  0
LINE
  8
1
 62
7
  6
DOT
 10
378.082005
 20
444.075520
 11
387.129448
 21
444.075520
  0
LINE
  8
1
 62
7
  6
DOT
 10
378.082005
 20
439.077118
 11
387.129448
 21
439.077118
  0
LINE
  8
1
 62
7
  6
DOT
 10
378.082005
 20
446.114018
 11
378.082005
 21
439.077118
  0
LINE
  8
1
 62
7
  6
DOT
 10
387.129448
 20
446.114018
 11
378.082005
 21
446.114018
  0
LINE
  8
1
 62
7
  6
CONTINUOUS
 10
388.134719
 20
439.077118
 11
387.129448
 21
439.077118
  0
LINE
  8
1
 62
7
  6
CONTINUOUS
 10
388.134719
 20
446.114018
 11
388.134719
 21
439.077118
  0
LINE
  8
1
 62
7
  6
CONTINUOUS
 10
387.129448
 20
446.114018
 11
388.134719
 21
446.114018
  0
LINE
  8
1
 62
7
  6
CONTINUOUS
 10
261.671582
 20
359.761208
 11
299.771367
 21
359.761208
  0
LINE
  8
1
 62
7
  6
CONTINUOUS
 10
398.187433
 20
359.761208
 11
360.087648
 21
359.761208
  0
LINE
  8
1
 62
7
  6
DOT
 10
329.929507
 20
378.258201
 11
329.929507
 21
361.771751
  0
LINE
  8
1
 62
7
  6
DOT
 10
329.929507
 20
378.258201
 11
329.929507
 21
359.761208
  0
ARC
  8
1
 62
7
  6
CONTINUOUS
 10
398.187433
 20
361.771751
 40
2.010543
 50
-90.000000
 51
0.000000
  0
ARC
  8
1
 62
7
  6
CONTINUOUS
 10
398.187433
 20
448.627196
 40
2.010543
 50
-0.000000
 51
90.000000
  0
LINE
  8
1
 62
7
  6
CONTINUOUS
 10
331.940050
 20
450.637739
 11
398.187433
 21
450.637739
  0
ARC
  8
1
 62
7
  6
CONTINUOUS
 10
261.671582
 20
361.771751
 40
2.010543
 50
180.000000
 51
-90.000000
  0
ARC
  8
1
 62
7
  6
CONTINUOUS
 10
261.671582
 20
448.627196
 40
2.010543
 50
90.000000
 51
180.000000
  0
LINE
  8
1
 62
7
  6
CONTINUOUS
 10
327.918965
 20
450.637739
 11
261.671582
 21
450.637739
  0
LINE
  8
1
 62
7
  6
DOT
 10
306.305630
 20
378.258201
 11
306.305630
 21
367.803379
  0
LINE
  8
1
 62
7
  6
DOT
 10
306.305630
 20
367.803379
 11
326.411058
 21
367.803379
  0
LINE
  8
1
 62
7
  6
DOT
 10
326.411058
 20
367.803379
 11
326.411058
 21
378.258201
  0
LINE
  8
1
 62
7
  6
DOT
 10
333.447957
 20
378.258201
 11
333.447957
 21
367.803379
  0
LINE
  8
1
 62
7
  6
DOT
 10
333.447957
 20
367.803379
 11
353.553384
 21
367.803379
  0
LINE
  8
1
 62
7
  6
DOT
 10
353.553384
 20
367.803379
 11
353.553384
 21
378.258201
  0
LINE
  8
1
 62
7
  6
CONTINUOUS
 10
236.238217
 20
420.680652
 11
236.238217
 21
430.331257
  0
LINE
  8
1
 62
7
  6
CONTINUOUS
 10
236.238217
 20
430.331257
 11
246.994620
 21
430.331257
  0
LINE
  8
1
 62
7
  6
CONTINUOUS
 10
246.994620
 20
430.331257
 11
246.994620
 21
420.680652
  0
LINE
  8
1
 62
7
  6
CONTINUOUS
 10
246.994620
 20
420.680652
 11
236.238217
 21
420.680652
  0
LINE
  8
1
 62
7
  6
CONTINUOUS
 10
236.238217
 20
400.575225
 11
236.238217
 21
410.225830
  0
LINE
  8
1
 62
7
  6
CONTINUOUS
 10
236.238217
 20
410.225830
 11
246.994620
 21
410.225830
  0
LINE
  8
1
 62
7
  6
CONTINUOUS
 10
246.994620
 20
410.225830
 11
246.994620
 21
400.575225
  0
LINE
  8
1
 62
7
  6
CONTINUOUS
 10
246.994620
 20
400.575225
 11
236.238217
 21
400.575225
  0
ARC
  8
1
 62
7
  6
CONTINUOUS
 10
262.452990
 20
417.765211
 40
3.554171
 50
-135.000000
 51
-127.953425
  0
ARC
  8
1
 62
7
  6
CONTINUOUS
 10
262.452990
 20
417.765211
 40
5.067078
 50
-150.066883
 51
-136.386973
  0
ARC
  8
1
 62
7
  6
CONTINUOUS
 10
331.452010
 20
417.688255
 40
3.554171
 50
-135.000000
 51
-127.953425
  0
LINE
  8
1
 62
7
  6
CONTINUOUS
 10
360.022217
 20
368.820365
 11
365.013478
 21
368.820365
  0
LINE
  8
1
 62
7
  6
CONTINUOUS
 10
365.013478
 20
366.809822
 11
360.276309
 21
366.809822
  0
LINE
  8
1
 62
7
  6
CONTINUOUS
 10
259.661039
 20
392.836453
 11
259.661039
 21
361.771751
  0
LINE
  8
1
 62
7
  6
CONTINUOUS
 10
258.052605
 20
359.761208
 11
258.052605
 21
392.577478
  0
LINE
  8
1
 62
7
  6
CONTINUOUS
 10
256.544698
 20
392.809919
 11
256.544698
 21
359.761208
  0
LINE
  8
1
 62
7
  6
CONTINUOUS
 10
258.052605
 20
397.023350
 11
258.052605
 21
412.682905
  0
LINE
  8
1
 62
7
  6
CONTINUOUS
 10
258.052605
 20
417.128777
 11
258.052605
 21
449.029305
  0
LINE
  8
1
 62
7
  6
CONTINUOUS
 10
256.544698
 20
449.029305
 11
256.544698
 21
417.691831
  0
LINE
  8
1
 62
7
  6
CONTINUOUS
 10
256.544698
 20
412.915346
 11
256.544698
 21
397.586404
  0
LINE
  8
1
 62
7
  6
CONTINUOUS
 10
259.661039
 20
364.184402
 11
259.661039
 21
392.836453
  0
LINE
  8
1
 62
7
  6
DASHDOT
 10
410.994590
 20
457.172003
 11
410.994590
 21
442.789738
  0
LINE
  8
1
 62
7
  6
DASHDOT
 10
250.151172
 20
457.172003
 11
250.151172
 21
442.789738
  0
LINE
  8
1
 62
7
  6
CONTINUOUS
 10
360.087648
 20
366.798107
 11
360.087648
 21
358.152774
  0
LINE
  8
1
 62
7
  6
CONTINUOUS
 10
360.087648
 20
373.231844
 11
360.087648
 21
368.808650
  0
LINE
  8
1
 62
7
  6
CONTINUOUS
 10
351.980046
 20
378.258201
 11
355.061291
 21
378.258201
  0
LINE
  8
1
 62
7
  6
CONTINUOUS
 10
315.139027
 20
378.258201
 11
350.223595
 21
378.258201
  0
LINE
  8
1
 62
7
  6
CONTINUOUS
 10
299.771367
 20
368.808650
 11
299.771367
 21
373.231844
  0
LINE
  8
1
 62
7
  6
CONTINUOUS
 10
299.771367
 20
358.152774
 11
299.771367
 21
366.798107
  0
LINE
  8
1
 62
7
  6
CONTINUOUS
 10
304.797723
 20
378.258201
 11
313.261033
 21
378.258201
  0
LINE
  8
1
 62
7
  6
DOT
 10
299.771367
 20
359.761208
 11
360.087648
 21
359.761208
  0
ARC
  8
1
 62
7
  6
CONTINUOUS
 10
304.797723
 20
373.231844
 40
5.026357
 50
90.000000
 51
180.000000
  0
ARC
  8
1
 62
7
  6
CONTINUOUS
 10
355.061291
 20
373.231844
 40
5.026357
 50
0.000000
 51
90.000000
  0
LINE
  8
1
 62
7
  6
DASHDOT
 10
350.034935
 20
366.295472
 11
350.034935
 21
351.913208
  0
LINE
  8
1
 62
7
  6
DASHDOT
 10
309.824080
 20
366.295472
 11
309.824080
 21
351.913208
  0
LINE
  8
1
 62
7
  6
CONTINUOUS
 10
269.274170
 20
447.119289
 11
269.274170
 21
438.071847
  0
LINE
  8
1
 62
7
  6
CONTINUOUS
 10
291.390140
 20
440.082390
 11
291.390140
 21
445.108746
  0
LINE
  8
1
 62
7
  6
CONTINUOUS
 10
291.390140
 20
445.108746
 11
282.342698
 21
445.108746
  0
ARC
  8
1
 62
7
  6
CONTINUOUS
 10
282.342698
 20
446.114018
 40
1.005271
 50
180.000000
 51
-90.000000
  0
LINE
  8
1
 62
7
  6
CONTINUOUS
 10
282.342698
 20
440.082390
 11
291.390140
 21
440.082390
  0
LINE
  8
1
 62
7
  6
CONTINUOUS
 10
280.332155
 20
447.119289
 11
269.274170
 21
447.119289
  0
ARC
  8
1
 62
7
  6
CONTINUOUS
 10
280.332155
 20
446.114018
 40
1.005271
 50
0.000000
 51
90.000000
  0
ARC
  8
1
 62
7
  6
CONTINUOUS
 10
282.342698
 20
439.077118
 40
1.005271
 50
90.000000
 51
180.000000
  0
LINE
  8
1
 62
7
  6
CONTINUOUS
 10
269.274170
 20
438.071847
 11
280.332155
 21
438.071847
  0
ARC
  8
1
 62
7
  6
CONTINUOUS
 10
280.332155
 20
439.077118
 40
1.005271
 50
-90.000000
 51
0.000000
  0
LINE
  8
1
 62
7
  6
CONTINUOUS
 10
269.274170
 20
372.327100
 11
269.274170
 21
363.279658
  0
LINE
  8
1
 62
7
  6
CONTINUOUS
 10
291.390140
 20
365.290200
 11
291.390140
 21
370.316557
  0
LINE
  8
1
 62
7
  6
CONTINUOUS
 10
291.390140
 20
370.316557
 11
282.342698
 21
370.316557
  0
ARC
  8
1
 62
7
  6
CONTINUOUS
 10
282.342698
 20
371.321829
 40
1.005271
 50
-180.000000
 51
-90.000000
  0
LINE
  8
1
 62
7
  6
CONTINUOUS
 10
282.342698
 20
365.290200
 11
291.390140
 21
365.290200
  0
LINE
  8
1
 62
7
  6
CONTINUOUS
 10
280.332155
 20
372.327100
 11
269.274170
 21
372.327100
  0
ARC
  8
1
 62
7
  6
CONTINUOUS
 10
280.332155
 20
371.321829
 40
1.005271
 50
-0.000000
 51
90.000000
  0
ARC
  8
1
 62
7
  6
CONTINUOUS
 10
282.342698
 20
364.284929
 40
1.005271
 50
90.000000
 51
180.000000
  0
LINE
  8
1
 62
7
  6
CONTINUOUS
 10
269.274170
 20
363.279658
 11
280.332155
 21
363.279658
  0
ARC
  8
1
 62
7
  6
CONTINUOUS
 10
280.332155
 20
364.284929
 40
1.005271
 50
-90.000000
 51
0.000000
  0
LINE
  8
1
 62
7
  6
CONTINUOUS
 10
387.129448
 20
372.327100
 11
387.129448
 21
363.279658
  0
LINE
  8
1
 62
7
  6
CONTINUOUS
 10
365.013478
 20
365.290200
 11
365.013478
 21
370.316557
  0
LINE
  8
1
 62
7
  6
CONTINUOUS
 10
365.013478
 20
370.316557
 11
374.060920
 21
370.316557
  0
ARC
  8
1
 62
7
  6
CONTINUOUS
 10
374.060920
 20
371.321829
 40
1.005271
 50
-90.000000
 51
-0.000000
  0
LINE
  8
1
 62
7
  6
CONTINUOUS
 10
374.060920
 20
365.290200
 11
365.013478
 21
365.290200
  0
LINE
  8
1
 62
7
  6
CONTINUOUS
 10
376.071463
 20
372.327100
 11
387.129448
 21
372.327100
  0
ARC
  8
1
 62
7
  6
CONTINUOUS
 10
376.071463
 20
371.321829
 40
1.005271
 50
90.000000
 51
-180.000000
  0
ARC
  8
1
 62
7
  6
CONTINUOUS
 10
374.060920
 20
364.284929
 40
1.005271
 50
0.000000
 51
90.000000
  0
LINE
  8
1
 62
7
  6
CONTINUOUS
 10
387.129448
 20
363.279658
 11
376.071463
 21
363.279658
  0
ARC
  8
1
 62
7
  6
CONTINUOUS
 10
376.071463
 20
364.284929
 40
1.005271
 50
180.000000
 51
-90.000000
  0
LINE
  8
1
 62
7
  6
CONTINUOUS
 10
387.129448
 20
447.119289
 11
387.129448
 21
438.071847
  0
LINE
  8
1
 62
7
  6
CONTINUOUS
 10
365.013478
 20
440.082390
 11
365.013478
 21
445.108746
  0
LINE
  8
1
 62
7
  6
CONTINUOUS
 10
365.013478
 20
445.108746
 11
374.060920
 21
445.108746
  0
ARC
  8
1
 62
7
  6
CONTINUOUS
 10
374.060920
 20
446.114018
 40
1.005271
 50
-90.000000
 51
0.000000
  0
LINE
  8
1
 62
7
  6
CONTINUOUS
 10
374.060920
 20
440.082390
 11
365.013478
 21
440.082390
  0
LINE
  8
1
 62
7
  6
CONTINUOUS
 10
376.071463
 20
447.119289
 11
387.129448
 21
447.119289
  0
ARC
  8
1
 62
7
  6
CONTINUOUS
 10
376.071463
 20
446.114018
 40
1.005271
 50
90.000000
 51
180.000000
  0
ARC
  8
1
 62
7
  6
CONTINUOUS
 10
374.060920
 20
439.077118
 40
1.005271
 50
0.000000
 51
90.000000
  0
LINE
  8
1
 62
7
  6
CONTINUOUS
 10
387.129448
 20
438.071847
 11
376.071463
 21
438.071847
  0
ARC
  8
1
 62
7
  6
CONTINUOUS
 10
376.071463
 20
439.077118
 40
1.005271
 50
180.000000
 51
-90.000000
  0
LINE
  8
1
 62
7
  6
CONTINUOUS
 10
401.806409
 20
378.258201
 11
403.314317
 21
378.258201
  0
LINE
  8
1
 62
7
  6
CONTINUOUS
 10
256.544698
 20
378.258201
 11
258.052605
 21
378.258201
  0
ARC
  8
1
 62
7
  6
CONTINUOUS
 10
345.251814
 20
417.672864
 40
5.067078
 50
-150.066883
 51
-136.386973
  0
LINE
  8
1
 62
7
  6
CONTINUOUS
 10
357.676259
 20
441.590297
 11
365.013478
 21
441.590297
  0
LINE
  8
1
 62
7
  6
CONTINUOUS
 10
365.013478
 20
443.600839
 11
357.817706
 21
443.600839
  0
LINE
  8
1
 62
7
  6
CONTINUOUS
 10
282.059316
 20
314.949805
 11
282.059316
 21
309.923448
  0
LINE
  8
1
 62
7
  6
CONTINUOUS
 10
282.059316
 20
309.923448
 11
287.934743
 21
309.923448
  0
LINE
  8
1
 62
7
  6
CONTINUOUS
 10
287.934743
 20
309.923448
 11
287.934743
 21
314.949805
  0
LINE
  8
1
 62
7
  6
CONTINUOUS
 10
287.934743
 20
314.949805
 11
282.059316
 21
314.949805
  0
ARC
  8
1
 62
7
  6
CONTINUOUS
 10
279.899163
 20
317.190827
 40
3.112626
 50
-134.621368
 51
-46.052662
  0
ARC
  8
1
 62
7
  6
CONTINUOUS
 10
279.899163
 20
307.272964
 40
3.451989
 50
50.819861
 51
129.842041
  0
LINE
  8
1
 62
7
  6
CONTINUOUS
 10
277.687566
 20
309.923448
 11
277.687566
 21
314.949805
  0
LINE
  8
1
 62
7
  6
CONTINUOUS
 10
277.687566
 20
314.949805
 11
266.824045
 21
314.949805
  0
ARC
  8
1
 62
7
  6
CONTINUOUS
 10
266.824045
 20
313.944534
 40
1.005271
 50
90.000000
 51
180.000000
  0
LINE
  8
1
 62
7
  6
CONTINUOUS
 10
265.818774
 20
313.944534
 11
265.818774
 21
310.928720
  0
LINE
  8
1
 62
7
  6
CONTINUOUS
 10
266.824045
 20
309.923448
 11
277.687566
 21
309.923448
  0
ARC
  8
1
 62
7
  6
CONTINUOUS
 10
266.824045
 20
310.928720
 40
1.005271
 50
180.000000
 51
-90.000000
  0
LINE
  8
1
 62
7
  6
CONTINUOUS
 10
264.813502
 20
308.415541
 11
265.818774
 21
308.415541
  0
LINE
  8
1
 62
7
  6
CONTINUOUS
 10
265.818774
 20
308.415541
 11
265.818774
 21
313.185536
  0
LINE
  8
1
 62
7
  6
CONTINUOUS
 10
264.813502
 20
312.180265
 11
264.813502
 21
308.415541
  0
ARC
  8
1
 62
7
  6
CONTINUOUS
 10
265.818774
 20
312.180265
 40
1.005271
 50
90.000000
 51
180.000000
  0
LINE
  8
1
 62
7
  6
CONTINUOUS
 10
388.134719
 20
308.415541
 11
387.129448
 21
308.415541
  0
LINE
  8
1
 62
7
  6
CONTINUOUS
 10
387.129448
 20
308.415541
 11
387.129448
 21
313.185536
  0
LINE
  8
1
 62
7
  6
CONTINUOUS
 10
388.134719
 20
312.180265
 11
388.134719
 21
308.415541
  0
ARC
  8
1
 62
7
  6
CONTINUOUS
 10
387.129448
 20
312.180265
 40
1.005271
 50
0.000000
 51
90.000000
  0
LINE
  8
1
 62
7
  6
CONTINUOUS
 10
375.260655
 20
309.923448
 11
375.260655
 21
314.949805
  0
LINE
  8
1
 62
7
  6
CONTINUOUS
 10
375.260655
 20
314.949805
 11
386.124176
 21
314.949805
  0
ARC
  8
1
 62
7
  6
CONTINUOUS
 10
386.124176
 20
313.944534
 40
1.005271
 50
0.000000
 51
90.000000
  0
LINE
  8
1
 62
7
  6
CONTINUOUS
 10
387.129448
 20
313.944534
 11
387.129448
 21
310.928720
  0
LINE
  8
1
 62
7
  6
CONTINUOUS
 10
386.124176
 20
309.923448
 11
375.260655
 21
309.923448
  0
ARC
  8
1
 62
7
  6
CONTINUOUS
 10
386.124176
 20
310.928720
 40
1.005271
 50
-90.000000
 51
0.000000
  0
ARC
  8
1
 62
7
  6
CONTINUOUS
 10
373.049058
 20
307.272964
 40
3.451989
 50
50.157959
 51
129.180139
  0
ARC
  8
1
 62
7
  6
CONTINUOUS
 10
373.049058
 20
317.190827
 40
3.112626
 50
-133.947338
 51
-45.378632
  0
LINE
  8
1
 62
7
  6
CONTINUOUS
 10
370.888905
 20
314.949805
 11
370.888905
 21
309.923448
  0
LINE
  8
1
 62
7
  6
CONTINUOUS
 10
370.888905
 20
309.923448
 11
365.013478
 21
309.923448
  0
LINE
  8
1
 62
7
  6
CONTINUOUS
 10
365.013478
 20
309.923448
 11
365.013478
 21
314.949805
  0
LINE
  8
1
 62
7
  6
CONTINUOUS
 10
365.013478
 20
314.949805
 11
370.888905
 21
314.949805
  0
ARC
  8
1
 62
7
  6
CONTINUOUS
 10
238.191146
 20
309.907664
 40
5.067078
 50
29.933117
 51
149.865858
  0
ARC
  8
1
 62
7
  6
CONTINUOUS
 10
238.191146
 20
309.907664
 40
3.554171
 50
45.000000
 51
135.000000
  0
ARC
  8
1
 62
7
  6
CONTINUOUS
 10
240.704325
 20
314.934021
 40
5.067078
 50
-150.066883
 51
-30.134142
  0
ARC
  8
1
 62
7
  6
CONTINUOUS
 10
240.704325
 20
314.934021
 40
3.554171
 50
-135.000000
 51
-45.000000
  0
ARC
  8
1
 62
7
  6
CONTINUOUS
 10
245.095497
 20
314.949258
 40
3.554171
 50
-135.000000
 51
-127.953425
  0
ARC
  8
1
 62
7
  6
CONTINUOUS
 10
245.095497
 20
314.949258
 40
3.554171
 50
-101.331887
 51
-45.000000
  0
ARC
  8
1
 62
7
  6
CONTINUOUS
 10
245.095497
 20
314.949258
 40
5.067078
 50
-150.066883
 51
-136.386973
  0
ARC
  8
1
 62
7
  6
CONTINUOUS
 10
245.095497
 20
314.949258
 40
5.067078
 50
-115.478803
 51
-30.134142
  0
ARC
  8
1
 62
7
  6
CONTINUOUS
 10
233.799974
 20
309.892428
 40
3.554171
 50
45.000000
 51
52.046575
  0
ARC
  8
1
 62
7
  6
CONTINUOUS
 10
233.799974
 20
309.892428
 40
3.554171
 50
78.668113
 51
135.000000
  0
ARC
  8
1
 62
7
  6
CONTINUOUS
 10
233.799974
 20
309.892428
 40
5.067078
 50
29.933117
 51
43.613027
  0
ARC
  8
1
 62
7
  6
CONTINUOUS
 10
233.799974
 20
309.892428
 40
5.067078
 50
64.521197
 51
149.865858
  0
ARC
  8
1
 62
7
  6
CONTINUOUS
 10
254.504129
 20
314.918630
 40
5.067078
 50
-150.066883
 51
-30.134142
  0
ARC
  8
1
 62
7
  6
CONTINUOUS
 10
254.504129
 20
314.918630
 40
3.554171
 50
-135.000000
 51
-45.000000
  0
ARC
  8
1
 62
7
  6
CONTINUOUS
 10
258.895301
 20
314.933866
 40
5.067078
 50
-115.478803
 51
-30.134142
  0
ARC
  8
1
 62
7
  6
CONTINUOUS
 10
247.599778
 20
309.877037
 40
3.554171
 50
45.000000
 51
52.046575
  0
ARC
  8
1
 62
7
  6
CONTINUOUS
 10
247.599778
 20
309.877037
 40
3.554171
 50
78.668113
 51
135.000000
  0
ARC
  8
1
 62
7
  6
CONTINUOUS
 10
247.599778
 20
309.877037
 40
5.067078
 50
29.933117
 51
43.613027
  0
ARC
  8
1
 62
7
  6
CONTINUOUS
 10
247.599778
 20
309.877037
 40
5.067078
 50
64.521197
 51
149.865858
  0
ARC
  8
1
 62
7
  6
CONTINUOUS
 10
261.399582
 20
309.861646
 40
3.554171
 50
45.000000
 51
52.046575
  0
ARC
  8
1
 62
7
  6
CONTINUOUS
 10
261.399582
 20
309.861646
 40
5.067078
 50
29.933117
 51
43.613027
  0
ARC
  8
1
 62
7
  6
CONTINUOUS
 10
293.390362
 20
309.846100
 40
5.067078
 50
29.933117
 51
149.865858
  0
ARC
  8
1
 62
7
  6
CONTINUOUS
 10
293.390362
 20
309.846100
 40
3.554171
 50
45.000000
 51
135.000000
  0
ARC
  8
1
 62
7
  6
CONTINUOUS
 10
295.903541
 20
314.872457
 40
5.067078
 50
-150.066883
 51
-30.134142
  0
ARC
  8
1
 62
7
  6
CONTINUOUS
 10
295.903541
 20
314.872457
 40
3.554171
 50
-135.000000
 51
-45.000000
  0
ARC
  8
1
 62
7
  6
CONTINUOUS
 10
300.294714
 20
314.887693
 40
3.554171
 50
-135.000000
 51
-127.953425
  0
ARC
  8
1
 62
7
  6
CONTINUOUS
 10
300.294714
 20
314.887693
 40
3.554171
 50
-101.331887
 51
-45.000000
  0
ARC
  8
1
 62
7
  6
CONTINUOUS
 10
300.294714
 20
314.887693
 40
5.067078
 50
-150.066883
 51
-136.386973
  0
ARC
  8
1
 62
7
  6
CONTINUOUS
 10
300.294714
 20
314.887693
 40
5.067078
 50
-115.478803
 51
-30.134142
  0
ARC
  8
1
 62
7
  6
CONTINUOUS
 10
288.999190
 20
309.830864
 40
3.554171
 50
45.000000
 51
52.046575
  0
ARC
  8
1
 62
7
  6
CONTINUOUS
 10
288.999190
 20
309.830864
 40
5.067078
 50
29.933117
 51
43.613027
  0
ARC
  8
1
 62
7
  6
CONTINUOUS
 10
307.190166
 20
309.830709
 40
5.067078
 50
29.933117
 51
149.865858
  0
ARC
  8
1
 62
7
  6
CONTINUOUS
 10
307.190166
 20
309.830709
 40
3.554171
 50
45.000000
 51
135.000000
  0
ARC
  8
1
 62
7
  6
CONTINUOUS
 10
309.703345
 20
314.857066
 40
5.067078
 50
-150.066883
 51
-30.134142
  0
ARC
  8
1
 62
7
  6
CONTINUOUS
 10
309.703345
 20
314.857066
 40
3.554171
 50
-135.000000
 51
-45.000000
  0
ARC
  8
1
 62
7
  6
CONTINUOUS
 10
314.094518
 20
314.872302
 40
3.554171
 50
-135.000000
 51
-127.953425
  0
ARC
  8
1
 62
7
  6
CONTINUOUS
 10
314.094518
 20
314.872302
 40
3.554171
 50
-101.331887
 51
-45.000000
  0
ARC
  8
1
 62
7
  6
CONTINUOUS
 10
314.094518
 20
314.872302
 40
5.067078
 50
-150.066883
 51
-136.386973
  0
ARC
  8
1
 62
7
  6
CONTINUOUS
 10
314.094518
 20
314.872302
 40
5.067078
 50
-115.478803
 51
-30.134142
  0
ARC
  8
1
 62
7
  6
CONTINUOUS
 10
302.798994
 20
309.815473
 40
3.554171
 50
45.000000
 51
52.046575
  0
ARC
  8
1
 62
7
  6
CONTINUOUS
 10
302.798994
 20
309.815473
 40
3.554171
 50
78.668113
 51
135.000000
  0
ARC
  8
1
 62
7
  6
CONTINUOUS
 10
302.798994
 20
309.815473
 40
5.067078
 50
29.933117
 51
43.613027
  0
ARC
  8
1
 62
7
  6
CONTINUOUS
 10
302.798994
 20
309.815473
 40
5.067078
 50
64.521197
 51
149.865858
  0
ARC
  8
1
 62
7
  6
CONTINUOUS
 10
320.989971
 20
309.815318
 40
5.067078
 50
29.933117
 51
149.865858
  0
ARC
  8
1
 62
7
  6
CONTINUOUS
 10
320.989971
 20
309.815318
 40
3.554171
 50
45.000000
 51
135.000000
  0
ARC
  8
1
 62
7
  6
CONTINUOUS
 10
323.503149
 20
314.841675
 40
5.067078
 50
-150.066883
 51
-30.134142
  0
ARC
  8
1
 62
7
  6
CONTINUOUS
 10
323.503149
 20
314.841675
 40
3.554171
 50
-135.000000
 51
-45.000000
  0
ARC
  8
1
 62
7
  6
CONTINUOUS
 10
327.894322
 20
314.856911
 40
3.554171
 50
-135.000000
 51
-127.953425
  0
ARC
  8
1
 62
7
  6
CONTINUOUS
 10
327.894322
 20
314.856911
 40
3.554171
 50
-101.331887
 51
-45.000000
  0
ARC
  8
1
 62
7
  6
CONTINUOUS
 10
327.894322
 20
314.856911
 40
5.067078
 50
-150.066883
 51
-136.386973
  0
ARC
  8
1
 62
7
  6
CONTINUOUS
 10
327.894322
 20
314.856911
 40
5.067078
 50
-115.478803
 51
-30.134142
  0
ARC
  8
1
 62
7
  6
CONTINUOUS
 10
316.598798
 20
309.800082
 40
3.554171
 50
45.000000
 51
52.046575
  0
ARC
  8
1
 62
7
  6
CONTINUOUS
 10
316.598798
 20
309.800082
 40
3.554171
 50
78.668113
 51
135.000000
  0
ARC
  8
1
 62
7
  6
CONTINUOUS
 10
316.598798
 20
309.800082
 40
5.067078
 50
29.933117
 51
43.613027
  0
ARC
  8
1
 62
7
  6
CONTINUOUS
 10
316.598798
 20
309.800082
 40
5.067078
 50
64.521197
 51
149.865858
  0
ARC
  8
1
 62
7
  6
CONTINUOUS
 10
334.789775
 20
309.799927
 40
5.067078
 50
29.933117
 51
149.865858
  0
ARC
  8
1
 62
7
  6
CONTINUOUS
 10
334.789775
 20
309.799927
 40
3.554171
 50
45.000000
 51
135.000000
  0
ARC
  8
1
 62
7
  6
CONTINUOUS
 10
337.302953
 20
314.826284
 40
5.067078
 50
-150.066883
 51
-30.134142
  0
ARC
  8
1
 62
7
  6
CONTINUOUS
 10
337.302953
 20
314.826284
 40
3.554171
 50
-135.000000
 51
-45.000000
  0
ARC
  8
1
 62
7
  6
CONTINUOUS
 10
341.694126
 20
314.841520
 40
3.554171
 50
-135.000000
 51
-127.953425
  0
ARC
  8
1
 62
7
  6
CONTINUOUS
 10
341.694126
 20
314.841520
 40
5.067078
 50
-150.066883
 51
-136.386973
  0
ARC
  8
1
 62
7
  6
CONTINUOUS
 10
341.694126
 20
314.841520
 40
5.067078
 50
-115.478803
 51
-30.134142
  0
ARC
  8
1
 62
7
  6
CONTINUOUS
 10
330.398602
 20
309.784690
 40
3.554171
 50
45.000000
 51
52.046575
  0
ARC
  8
1
 62
7
  6
CONTINUOUS
 10
330.398602
 20
309.784690
 40
3.554171
 50
78.668113
 51
135.000000
  0
ARC
  8
1
 62
7
  6
CONTINUOUS
 10
330.398602
 20
309.784690
 40
5.067078
 50
29.933117
 51
43.613027
  0
ARC
  8
1
 62
7
  6
CONTINUOUS
 10
330.398602
 20
309.784690
 40
5.067078
 50
64.521197
 51
149.865858
  0
ARC
  8
1
 62
7
  6
CONTINUOUS
 10
344.152729
 20
309.692189
 40
3.554171
 50
45.000000
 51
135.000000
  0
ARC
  8
1
 62
7
  6
CONTINUOUS
 10
224.391342
 20
309.923055
 40
5.067078
 50
29.933117
 51
149.865858
  0
ARC
  8
1
 62
7
  6
CONTINUOUS
 10
224.391342
 20
309.923055
 40
3.554171
 50
45.000000
 51
135.000000
  0
ARC
  8
1
 62
7
  6
CONTINUOUS
 10
226.904521
 20
314.949412
 40
5.067078
 50
-150.066883
 51
-30.134142
  0
ARC
  8
1
 62
7
  6
CONTINUOUS
 10
226.904521
 20
314.949412
 40
3.554171
 50
-135.000000
 51
-45.000000
  0
ARC
  8
1
 62
7
  6
CONTINUOUS
 10
231.295693
 20
314.964649
 40
3.554171
 50
-135.000000
 51
-127.953425
  0
ARC
  8
1
 62
7
  6
CONTINUOUS
 10
231.295693
 20
314.964649
 40
3.554171
 50
-101.331887
 51
-45.000000
  0
ARC
  8
1
 62
7
  6
CONTINUOUS
 10
231.295693
 20
314.964649
 40
5.067078
 50
-150.066883
 51
-136.386973
  0
ARC
  8
1
 62
7
  6
CONTINUOUS
 10
231.295693
 20
314.964649
 40
5.067078
 50
-115.478803
 51
-30.134142
  0
ARC
  8
1
 62
7
  6
CONTINUOUS
 10
220.000169
 20
309.907819
 40
3.554171
 50
45.000000
 51
52.046575
  0
ARC
  8
1
 62
7
  6
CONTINUOUS
 10
220.000169
 20
309.907819
 40
5.067078
 50
29.933117
 51
43.613027
  0
ARC
  8
1
 62
7
  6
CONTINUOUS
 10
288.999190
 20
309.830864
 40
5.067078
 50
64.521197
 51
102.126515
  0
ARC
  8
1
 62
7
  6
CONTINUOUS
 10
288.999190
 20
309.830864
 40
3.554171
 50
78.668113
 51
107.427102
  0
ARC
  8
1
 62
7
  6
CONTINUOUS
 10
286.494909
 20
314.903084
 40
3.554171
 50
-66.101912
 51
-45.000000
  0
ARC
  8
1
 62
7
  6
CONTINUOUS
 10
286.494909
 20
314.903084
 40
5.067078
 50
-73.873068
 51
-30.134142
  0
LINE
  8
1
 62
7
  6
CONTINUOUS
 10
347.560802
 20
313.441898
 11
365.013478
 21
313.441898
  0
ARC
  8
1
 62
7
  6
CONTINUOUS
 10
344.152729
 20
309.692189
 40
5.067078
 50
47.732615
 51
149.865858
  0
LINE
  8
1
 62
7
  6
CONTINUOUS
 10
348.102453
 20
311.431355
 11
365.013478
 21
311.431355
  0
ARC
  8
1
 62
7
  6
CONTINUOUS
 10
348.180724
 20
313.445115
 40
2.023408
 50
-150.395549
 51
-90.000000
  0
ARC
  8
1
 62
7
  6
CONTINUOUS
 10
341.694126
 20
314.841520
 40
3.346624
 50
-101.331887
 51
-45.000000
  0
LINE
  8
1
 62
7
  6
CONTINUOUS
 10
232.782820
 20
182.177560
 11
232.782820
 21
191.828165
  0
LINE
  8
1
 62
7
  6
CONTINUOUS
 10
232.782820
 20
191.828165
 11
243.539224
 21
191.828165
  0
LINE
  8
1
 62
7
  6
CONTINUOUS
 10
243.539224
 20
191.828165
 11
243.539224
 21
182.177560
  0
LINE
  8
1
 62
7
  6
CONTINUOUS
 10
243.539224
 20
182.177560
 11
232.782820
 21
182.177560
  0
ARC
  8
1
 62
7
  6
CONTINUOUS
 10
226.901569
 20
184.256127
 40
3.554171
 50
78.668113
 51
135.000000
  0
ARC
  8
1
 62
7
  6
CONTINUOUS
 10
224.397289
 20
189.328347
 40
3.554171
 50
-101.331887
 51
-45.000000
  0
ARC
  8
1
 62
7
  6
CONTINUOUS
 10
224.397289
 20
189.328347
 40
5.067078
 50
-115.478803
 51
-30.134142
  0
ARC
  8
1
 62
7
  6
CONTINUOUS
 10
226.901569
 20
184.256127
 40
5.067078
 50
29.933117
 51
43.613027
  0
ARC
  8
1
 62
7
  6
CONTINUOUS
 10
233.805920
 20
189.297720
 40
3.554171
 50
-135.000000
 51
-106.729822
  0
ARC
  8
1
 62
7
  6
CONTINUOUS
 10
233.805920
 20
189.297720
 40
5.067078
 50
-150.066883
 51
-101.648748
  0
ARC
  8
1
 62
7
  6
CONTINUOUS
 10
231.292742
 20
184.271363
 40
3.554171
 50
65.212895
 51
135.000000
  0
ARC
  8
1
 62
7
  6
CONTINUOUS
 10
231.292742
 20
184.271363
 40
5.067078
 50
71.145195
 51
149.865858
  0
ARC
  8
1
 62
7
  6
CONTINUOUS
 10
212.836715
 20
271.521321
 40
5.067078
 50
119.933117
 51
-120.134142
  0
ARC
  8
1
 62
7
  6
CONTINUOUS
 10
212.836715
 20
271.521321
 40
3.554171
 50
135.000000
 51
-135.000000
  0
ARC
  8
1
 62
7
  6
CONTINUOUS
 10
207.810358
 20
274.034499
 40
5.067078
 50
-60.066883
 51
59.865858
  0
ARC
  8
1
 62
7
  6
CONTINUOUS
 10
207.810358
 20
274.034499
 40
3.554171
 50
-45.000000
 51
45.000000
  0
ARC
  8
1
 62
7
  6
CONTINUOUS
 10
207.795122
 20
278.425672
 40
3.554171
 50
-45.000000
 51
-37.953425
  0
ARC
  8
1
 62
7
  6
CONTINUOUS
 10
207.795122
 20
278.425672
 40
3.554171
 50
-11.331887
 51
45.000000
  0
ARC
  8
1
 62
7
  6
CONTINUOUS
 10
207.795122
 20
278.425672
 40
5.067078
 50
-60.066883
 51
-46.386973
  0
ARC
  8
1
 62
7
  6
CONTINUOUS
 10
207.795122
 20
278.425672
 40
5.067078
 50
-25.478803
 51
59.865858
  0
ARC
  8
1
 62
7
  6
CONTINUOUS
 10
212.851951
 20
267.130148
 40
3.554171
 50
135.000000
 51
142.046575
  0
ARC
  8
1
 62
7
  6
CONTINUOUS
 10
212.851951
 20
267.130148
 40
3.554171
 50
168.668113
 51
-135.000000
  0
ARC
  8
1
 62
7
  6
CONTINUOUS
 10
212.851951
 20
267.130148
 40
5.067078
 50
119.933117
 51
133.613027
  0
ARC
  8
1
 62
7
  6
CONTINUOUS
 10
212.851951
 20
267.130148
 40
5.067078
 50
154.521197
 51
-120.134142
  0
ARC
  8
1
 62
7
  6
CONTINUOUS
 10
212.852106
 20
285.321125
 40
5.067078
 50
119.933117
 51
-120.134142
  0
ARC
  8
1
 62
7
  6
CONTINUOUS
 10
212.852106
 20
285.321125
 40
3.554171
 50
135.000000
 51
-135.000000
  0
ARC
  8
1
 62
7
  6
CONTINUOUS
 10
207.825749
 20
287.834303
 40
5.067078
 50
-60.066883
 51
59.865858
  0
ARC
  8
1
 62
7
  6
CONTINUOUS
 10
207.825749
 20
287.834303
 40
3.554171
 50
-45.000000
 51
45.000000
  0
ARC
  8
1
 62
7
  6
CONTINUOUS
 10
207.810513
 20
292.225476
 40
3.554171
 50
-11.331887
 51
45.000000
  0
ARC
  8
1
 62
7
  6
CONTINUOUS
 10
207.810513
 20
292.225476
 40
5.067078
 50
-25.478803
 51
59.865858
  0
ARC
  8
1
 62
7
  6
CONTINUOUS
 10
212.867342
 20
280.929952
 40
3.554171
 50
135.000000
 51
142.046575
  0
ARC
  8
1
 62
7
  6
CONTINUOUS
 10
212.867342
 20
280.929952
 40
3.554171
 50
168.668113
 51
-135.000000
  0
ARC
  8
1
 62
7
  6
CONTINUOUS
 10
212.867342
 20
280.929952
 40
5.067078
 50
119.933117
 51
133.613027
  0
ARC
  8
1
 62
7
  6
CONTINUOUS
 10
212.867342
 20
280.929952
 40
5.067078
 50
154.521197
 51
-120.134142
  0
ARC
  8
1
 62
7
  6
CONTINUOUS
 10
212.882733
 20
294.729756
 40
3.554171
 50
168.668113
 51
-135.000000
  0
ARC
  8
1
 62
7
  6
CONTINUOUS
 10
212.882733
 20
294.729756
 40
5.067078
 50
154.521197
 51
-120.134142
  0
ARC
  8
1
 62
7
  6
CONTINUOUS
 10
207.764340
 20
250.826064
 40
3.554171
 50
-11.331887
 51
45.000000
  0
ARC
  8
1
 62
7
  6
CONTINUOUS
 10
207.764340
 20
250.826064
 40
5.067078
 50
-25.478803
 51
59.865858
  0
ARC
  8
1
 62
7
  6
CONTINUOUS
 10
212.821324
 20
257.721517
 40
5.067078
 50
119.933117
 51
-120.134142
  0
ARC
  8
1
 62
7
  6
CONTINUOUS
 10
212.821324
 20
257.721517
 40
3.554171
 50
135.000000
 51
-135.000000
  0
ARC
  8
1
 62
7
  6
CONTINUOUS
 10
207.794967
 20
260.234695
 40
5.067078
 50
-60.066883
 51
59.865858
  0
ARC
  8
1
 62
7
  6
CONTINUOUS
 10
207.794967
 20
260.234695
 40
3.554171
 50
-45.000000
 51
45.000000
  0
ARC
  8
1
 62
7
  6
CONTINUOUS
 10
207.779731
 20
264.625868
 40
3.554171
 50
-45.000000
 51
-37.953425
  0
ARC
  8
1
 62
7
  6
CONTINUOUS
 10
207.779731
 20
264.625868
 40
3.554171
 50
-11.331887
 51
45.000000
  0
ARC
  8
1
 62
7
  6
CONTINUOUS
 10
207.779731
 20
264.625868
 40
5.067078
 50
-60.066883
 51
-46.386973
  0
ARC
  8
1
 62
7
  6
CONTINUOUS
 10
207.779731
 20
264.625868
 40
5.067078
 50
-25.478803
 51
59.865858
  0
ARC
  8
1
 62
7
  6
CONTINUOUS
 10
212.836560
 20
253.330344
 40
3.554171
 50
135.000000
 51
142.046575
  0
ARC
  8
1
 62
7
  6
CONTINUOUS
 10
212.836560
 20
253.330344
 40
3.554171
 50
168.668113
 51
-135.000000
  0
ARC
  8
1
 62
7
  6
CONTINUOUS
 10
212.836560
 20
253.330344
 40
5.067078
 50
119.933117
 51
133.613027
  0
ARC
  8
1
 62
7
  6
CONTINUOUS
 10
212.836560
 20
253.330344
 40
5.067078
 50
154.521197
 51
-120.134142
  0
ARC
  8
1
 62
7
  6
CONTINUOUS
 10
212.821169
 20
243.906383
 40
5.067078
 50
119.933117
 51
-120.134142
  0
ARC
  8
1
 62
7
  6
CONTINUOUS
 10
212.821169
 20
243.906383
 40
3.554171
 50
135.000000
 51
-135.000000
  0
ARC
  8
1
 62
7
  6
CONTINUOUS
 10
207.794812
 20
246.419562
 40
5.067078
 50
-60.066883
 51
59.865858
  0
ARC
  8
1
 62
7
  6
CONTINUOUS
 10
207.794812
 20
246.419562
 40
3.554171
 50
-45.000000
 51
45.000000
  0
ARC
  8
1
 62
7
  6
CONTINUOUS
 10
207.779576
 20
250.810734
 40
5.067078
 50
-60.066883
 51
-46.386973
  0
ARC
  8
1
 62
7
  6
CONTINUOUS
 10
212.836405
 20
239.515211
 40
3.554171
 50
135.000000
 51
142.046575
  0
ARC
  8
1
 62
7
  6
CONTINUOUS
 10
212.836405
 20
239.515211
 40
3.554171
 50
168.668113
 51
-135.000000
  0
ARC
  8
1
 62
7
  6
CONTINUOUS
 10
212.836405
 20
239.515211
 40
5.067078
 50
119.933117
 51
133.613027
  0
ARC
  8
1
 62
7
  6
CONTINUOUS
 10
212.836405
 20
239.515211
 40
5.067078
 50
154.521197
 51
-120.134142
  0
ARC
  8
1
 62
7
  6
CONTINUOUS
 10
207.748794
 20
223.211126
 40
3.554171
 50
-11.331887
 51
45.000000
  0
ARC
  8
1
 62
7
  6
CONTINUOUS
 10
207.748794
 20
223.211126
 40
5.067078
 50
-25.478803
 51
59.865858
  0
ARC
  8
1
 62
7
  6
CONTINUOUS
 10
212.805778
 20
230.106579
 40
5.067078
 50
119.933117
 51
-120.134142
  0
ARC
  8
1
 62
7
  6
CONTINUOUS
 10
212.805778
 20
230.106579
 40
3.554171
 50
135.000000
 51
-135.000000
  0
ARC
  8
1
 62
7
  6
CONTINUOUS
 10
207.779421
 20
232.619758
 40
5.067078
 50
-60.066883
 51
59.865858
  0
ARC
  8
1
 62
7
  6
CONTINUOUS
 10
207.779421
 20
232.619758
 40
3.554171
 50
-45.000000
 51
45.000000
  0
ARC
  8
1
 62
7
  6
CONTINUOUS
 10
207.764185
 20
237.010930
 40
3.554171
 50
-45.000000
 51
-37.953425
  0
ARC
  8
1
 62
7
  6
CONTINUOUS
 10
207.764185
 20
237.010930
 40
3.554171
 50
-11.331887
 51
45.000000
  0
ARC
  8
1
 62
7
  6
CONTINUOUS
 10
207.764185
 20
237.010930
 40
5.067078
 50
-60.066883
 51
-46.386973
  0
ARC
  8
1
 62
7
  6
CONTINUOUS
 10
207.764185
 20
237.010930
 40
5.067078
 50
-25.478803
 51
59.865858
  0
ARC
  8
1
 62
7
  6
CONTINUOUS
 10
212.821014
 20
225.715407
 40
3.554171
 50
135.000000
 51
142.046575
  0
ARC
  8
1
 62
7
  6
CONTINUOUS
 10
212.821014
 20
225.715407
 40
3.554171
 50
168.668113
 51
-135.000000
  0
ARC
  8
1
 62
7
  6
CONTINUOUS
 10
212.821014
 20
225.715407
 40
5.067078
 50
119.933117
 51
133.613027
  0
ARC
  8
1
 62
7
  6
CONTINUOUS
 10
212.821014
 20
225.715407
 40
5.067078
 50
154.521197
 51
-120.134142
  0
ARC
  8
1
 62
7
  6
CONTINUOUS
 10
212.805623
 20
216.291446
 40
5.067078
 50
119.933117
 51
-120.134142
  0
ARC
  8
1
 62
7
  6
CONTINUOUS
 10
212.805623
 20
216.291446
 40
3.554171
 50
135.000000
 51
-135.000000
  0
ARC
  8
1
 62
7
  6
CONTINUOUS
 10
207.779266
 20
218.804624
 40
5.067078
 50
-60.066883
 51
59.865858
  0
ARC
  8
1
 62
7
  6
CONTINUOUS
 10
207.779266
 20
218.804624
 40
3.554171
 50
-45.000000
 51
45.000000
  0
ARC
  8
1
 62
7
  6
CONTINUOUS
 10
207.764030
 20
223.195797
 40
5.067078
 50
-60.066883
 51
-46.386973
  0
ARC
  8
1
 62
7
  6
CONTINUOUS
 10
212.820860
 20
211.900273
 40
3.554171
 50
135.000000
 51
142.046575
  0
ARC
  8
1
 62
7
  6
CONTINUOUS
 10
212.820860
 20
211.900273
 40
3.554171
 50
168.668113
 51
-135.000000
  0
ARC
  8
1
 62
7
  6
CONTINUOUS
 10
212.820860
 20
211.900273
 40
5.067078
 50
119.933117
 51
133.613027
  0
ARC
  8
1
 62
7
  6
CONTINUOUS
 10
212.820860
 20
211.900273
 40
5.067078
 50
154.521197
 51
-120.134142
  0
ARC
  8
1
 62
7
  6
CONTINUOUS
 10
212.790232
 20
202.491642
 40
5.067078
 50
119.933117
 51
-120.134142
  0
ARC
  8
1
 62
7
  6
CONTINUOUS
 10
212.790232
 20
202.491642
 40
3.554171
 50
135.000000
 51
-135.000000
  0
ARC
  8
1
 62
7
  6
CONTINUOUS
 10
207.763875
 20
205.004820
 40
5.067078
 50
-60.066883
 51
59.865858
  0
ARC
  8
1
 62
7
  6
CONTINUOUS
 10
207.763875
 20
205.004820
 40
3.554171
 50
-45.000000
 51
45.000000
  0
ARC
  8
1
 62
7
  6
CONTINUOUS
 10
207.748639
 20
209.395993
 40
3.554171
 50
-45.000000
 51
-37.953425
  0
ARC
  8
1
 62
7
  6
CONTINUOUS
 10
207.748639
 20
209.395993
 40
3.554171
 50
-11.331887
 51
45.000000
  0
ARC
  8
1
 62
7
  6
CONTINUOUS
 10
207.748639
 20
209.395993
 40
5.067078
 50
-60.066883
 51
-46.386973
  0
ARC
  8
1
 62
7
  6
CONTINUOUS
 10
207.748639
 20
209.395993
 40
5.067078
 50
-25.478803
 51
59.865858
  0
ARC
  8
1
 62
7
  6
CONTINUOUS
 10
212.805468
 20
198.100469
 40
3.554171
 50
135.000000
 51
142.046575
  0
ARC
  8
1
 62
7
  6
CONTINUOUS
 10
212.805468
 20
198.100469
 40
5.067078
 50
119.933117
 51
133.613027
  0
ARC
  8
1
 62
7
  6
CONTINUOUS
 10
207.733248
 20
195.596189
 40
3.554171
 50
-19.669987
 51
45.000000
  0
ARC
  8
1
 62
7
  6
CONTINUOUS
 10
207.733248
 20
195.596189
 40
5.067078
 50
-21.922881
 51
59.865858
  0
ARC
  8
1
 62
7
  6
CONTINUOUS
 10
220.006116
 20
189.313111
 40
5.067078
 50
-64.640802
 51
-30.134142
  0
ARC
  8
1
 62
7
  6
CONTINUOUS
 10
213.461176
 20
298.720663
 40
5.067078
 50
119.933117
 51
-120.134142
  0
ARC
  8
1
 62
7
  6
CONTINUOUS
 10
213.461176
 20
298.720663
 40
3.554171
 50
135.000000
 51
-135.000000
  0
ARC
  8
1
 62
7
  6
CONTINUOUS
 10
212.308294
 20
307.852318
 40
3.554171
 50
-56.331887
 51
0.000000
  0
ARC
  8
1
 62
7
  6
CONTINUOUS
 10
212.308294
 20
307.852318
 40
5.067078
 50
-70.478803
 51
14.865858
  0
ARC
  8
1
 62
7
  6
CONTINUOUS
 10
217.665689
 20
306.036511
 40
3.554171
 50
123.668113
 51
180.000000
  0
ARC
  8
1
 62
7
  6
CONTINUOUS
 10
217.665689
 20
306.036511
 40
5.067078
 50
109.521197
 51
-165.134142
  0
ARC
  8
1
 62
7
  6
CONTINUOUS
 10
220.896707
 20
308.449487
 40
5.067078
 50
74.933117
 51
75.289815
  0
ARC
  8
1
 62
7
  6
CONTINUOUS
 10
220.896707
 20
308.449487
 40
5.067078
 50
90.363504
 51
-165.134142
  0
ARC
  8
1
 62
7
  6
CONTINUOUS
 10
220.896707
 20
308.449487
 40
3.554171
 50
107.986407
 51
180.000000
  0
ARC
  8
1
 62
7
  6
CONTINUOUS
 10
212.899708
 20
320.975546
 40
12.443268
 50
-70.016893
 51
-43.927171
  0
ARC
  8
1
 62
7
  6
CONTINUOUS
 10
202.276731
 20
305.173867
 40
10.334608
 50
-41.663663
 51
1.116010
  0
ARC
  8
1
 62
7
  6
CONTINUOUS
 10
200.948859
 20
305.240261
 40
13.174239
 50
-42.313000
 51
4.332314
  0
ARC
  8
1
 62
7
  6
CONTINUOUS
 10
216.949719
 20
294.285315
 40
10.719022
 50
114.973911
 51
122.471192
  0
ARC
  8
1
 62
7
  6
CONTINUOUS
 10
218.211197
 20
292.227113
 40
11.571741
 50
121.243792
 51
127.755493
  0
ARC
  8
1
 62
7
  6
CONTINUOUS
 10
215.631325
 20
190.892992
 40
5.067078
 50
164.933117
 51
-75.134142
  0
ARC
  8
1
 62
7
  6
CONTINUOUS
 10
207.184267
 20
192.210160
 40
5.067078
 50
-15.066883
 51
-1.386973
  0
ARC
  8
1
 62
7
  6
CONTINUOUS
 10
218.747127
 20
187.798737
 40
5.067078
 50
164.933117
 51
178.613027
  0
ARC
  8
1
 62
7
  6
CONTINUOUS
 10
216.953113
 20
199.149534
 40
7.467358
 50
-175.691335
 51
-136.782483
  0
ARC
  8
1
 62
7
  6
CONTINUOUS
 10
210.300069
 20
189.115906
 40
5.067078
 50
-15.066883
 51
76.171245
  0
ARC
  8
1
 62
7
  6
CONTINUOUS
 10
215.879765
 20
199.051957
 40
7.913527
 50
171.612968
 51
-123.617273
  0
ARC
  8
1
 62
7
  6
CONTINUOUS
 10
210.300069
 20
189.115906
 40
3.554171
 50
0.000000
 51
70.294250
  0
ARC
  8
1
 62
7
  6
CONTINUOUS
 10
218.868570
 20
190.555569
 40
6.702577
 50
-136.797932
 51
-58.781597
  0
ARC
  8
1
 62
7
  6
CONTINUOUS
 10
218.700611
 20
178.210157
 40
7.983343
 50
72.985317
 51
103.063954
  0
ARC
  8
1
 62
7
  6
CONTINUOUS
 10
218.701400
 20
190.639154
 40
5.442655
 50
-116.361876
 51
-46.190931
  0
ARC
  8
1
 62
7
  6
CONTINUOUS
 10
226.901569
 20
184.256127
 40
5.067078
 50
64.521197
 51
151.015978
  0
ARC
  8
1
 62
7
  6
CONTINUOUS
 10
215.631325
 20
190.892992
 40
3.554171
 50
180.000000
 51
-90.275853
  0
ARC
  8
1
 62
7
  6
CONTINUOUS
 10
218.032720
 20
177.265569
 40
10.359556
 50
64.675819
 51
103.500661
  0
LINE
  8
1
 62
7
  6
CONTINUOUS
 10
242.705882
 20
213.415541
 11
242.705882
 21
191.828165
  0
LINE
  8
1
 62
7
  6
CONTINUOUS
 10
242.705882
 20
182.177560
 11
242.705882
 21
174.415541
  0
ARC
  8
1
 62
7
  6
CONTINUOUS
 10
92.957345
 20
278.433897
 40
5.067078
 50
119.933117
 51
-120.134142
  0
ARC
  8
1
 62
7
  6
CONTINUOUS
 10
92.957345
 20
278.433897
 40
3.554171
 50
135.000000
 51
-135.000000
  0
ARC
  8
1
 62
7
  6
CONTINUOUS
 10
87.930988
 20
280.947076
 40
5.067078
 50
-60.066883
 51
59.865858
  0
ARC
  8
1
 62
7
  6
CONTINUOUS
 10
87.930988
 20
280.947076
 40
3.554171
 50
-45.000000
 51
45.000000
  0
ARC
  8
1
 62
7
  6
CONTINUOUS
 10
87.915752
 20
285.338248
 40
3.554171
 50
-45.000000
 51
-37.953425
  0
ARC
  8
1
 62
7
  6
CONTINUOUS
 10
87.915752
 20
285.338248
 40
3.554171
 50
-11.331887
 51
45.000000
  0
ARC
  8
1
 62
7
  6
CONTINUOUS
 10
87.915752
 20
285.338248
 40
5.067078
 50
-60.066883
 51
-46.386973
  0
ARC
  8
1
 62
7
  6
CONTINUOUS
 10
87.915752
 20
285.338248
 40
5.067078
 50
-25.478803
 51
59.865858
  0
ARC
  8
1
 62
7
  6
CONTINUOUS
 10
92.972582
 20
274.042725
 40
3.554171
 50
135.000000
 51
142.046575
  0
ARC
  8
1
 62
7
  6
CONTINUOUS
 10
92.972582
 20
274.042725
 40
3.554171
 50
168.668113
 51
-135.000000
  0
ARC
  8
1
 62
7
  6
CONTINUOUS
 10
92.972582
 20
274.042725
 40
5.067078
 50
119.933117
 51
133.613027
  0
ARC
  8
1
 62
7
  6
CONTINUOUS
 10
92.972582
 20
274.042725
 40
5.067078
 50
154.521197
 51
-120.134142
  0
ARC
  8
1
 62
7
  6
CONTINUOUS
 10
92.972736
 20
292.233701
 40
5.067078
 50
119.933117
 51
-120.134142
  0
ARC
  8
1
 62
7
  6
CONTINUOUS
 10
92.972736
 20
292.233701
 40
3.554171
 50
135.000000
 51
-135.000000
  0
ARC
  8
1
 62
7
  6
CONTINUOUS
 10
87.946380
 20
294.746880
 40
5.067078
 50
-60.066883
 51
59.865858
  0
ARC
  8
1
 62
7
  6
CONTINUOUS
 10
87.946380
 20
294.746880
 40
3.554171
 50
-45.000000
 51
45.000000
  0
ARC
  8
1
 62
7
  6
CONTINUOUS
 10
92.987973
 20
287.842529
 40
3.554171
 50
135.000000
 51
142.046575
  0
ARC
  8
1
 62
7
  6
CONTINUOUS
 10
92.987973
 20
287.842529
 40
3.554171
 50
168.668113
 51
-135.000000
  0
ARC
  8
1
 62
7
  6
CONTINUOUS
 10
92.987973
 20
287.842529
 40
5.067078
 50
119.933117
 51
133.613027
  0
ARC
  8
1
 62
7
  6
CONTINUOUS
 10
92.987973
 20
287.842529
 40
5.067078
 50
154.521197
 51
-120.134142
  0
ARC
  8
1
 62
7
  6
CONTINUOUS
 10
87.884970
 20
257.738640
 40
3.554171
 50
-11.331887
 51
45.000000
  0
ARC
  8
1
 62
7
  6
CONTINUOUS
 10
87.884970
 20
257.738640
 40
5.067078
 50
-25.478803
 51
59.865858
  0
ARC
  8
1
 62
7
  6
CONTINUOUS
 10
92.941954
 20
264.634093
 40
5.067078
 50
119.933117
 51
-120.134142
  0
ARC
  8
1
 62
7
  6
CONTINUOUS
 10
92.941954
 20
264.634093
 40
3.554171
 50
135.000000
 51
-135.000000
  0
ARC
  8
1
 62
7
  6
CONTINUOUS
 10
87.915597
 20
267.147272
 40
5.067078
 50
-60.066883
 51
59.865858
  0
ARC
  8
1
 62
7
  6
CONTINUOUS
 10
87.915597
 20
267.147272
 40
3.554171
 50
-45.000000
 51
45.000000
  0
ARC
  8
1
 62
7
  6
CONTINUOUS
 10
87.900361
 20
271.538444
 40
3.554171
 50
-45.000000
 51
-37.953425
  0
ARC
  8
1
 62
7
  6
CONTINUOUS
 10
87.900361
 20
271.538444
 40
3.554171
 50
-11.331887
 51
45.000000
  0
ARC
  8
1
 62
7
  6
CONTINUOUS
 10
87.900361
 20
271.538444
 40
5.067078
 50
-60.066883
 51
-46.386973
  0
ARC
  8
1
 62
7
  6
CONTINUOUS
 10
87.900361
 20
271.538444
 40
5.067078
 50
-25.478803
 51
59.865858
  0
ARC
  8
1
 62
7
  6
CONTINUOUS
 10
92.957191
 20
260.242921
 40
3.554171
 50
135.000000
 51
142.046575
  0
ARC
  8
1
 62
7
  6
CONTINUOUS
 10
92.957191
 20
260.242921
 40
3.554171
 50
168.668113
 51
-135.000000
  0
ARC
  8
1
 62
7
  6
CONTINUOUS
 10
92.957191
 20
260.242921
 40
5.067078
 50
119.933117
 51
133.613027
  0
ARC
  8
1
 62
7
  6
CONTINUOUS
 10
92.957191
 20
260.242921
 40
5.067078
 50
154.521197
 51
-120.134142
  0
ARC
  8
1
 62
7
  6
CONTINUOUS
 10
92.941799
 20
250.818960
 40
5.067078
 50
119.933117
 51
-120.134142
  0
ARC
  8
1
 62
7
  6
CONTINUOUS
 10
92.941799
 20
250.818960
 40
3.554171
 50
135.000000
 51
-135.000000
  0
ARC
  8
1
 62
7
  6
CONTINUOUS
 10
87.915443
 20
253.332138
 40
5.067078
 50
-60.066883
 51
59.865858
  0
ARC
  8
1
 62
7
  6
CONTINUOUS
 10
87.915443
 20
253.332138
 40
3.554171
 50
-45.000000
 51
45.000000
  0
ARC
  8
1
 62
7
  6
CONTINUOUS
 10
87.900206
 20
257.723311
 40
5.067078
 50
-60.066883
 51
-46.386973
  0
ARC
  8
1
 62
7
  6
CONTINUOUS
 10
92.957036
 20
246.427787
 40
3.554171
 50
135.000000
 51
142.046575
  0
ARC
  8
1
 62
7
  6
CONTINUOUS
 10
92.957036
 20
246.427787
 40
3.554171
 50
168.668113
 51
-135.000000
  0
ARC
  8
1
 62
7
  6
CONTINUOUS
 10
92.957036
 20
246.427787
 40
5.067078
 50
119.933117
 51
133.613027
  0
ARC
  8
1
 62
7
  6
CONTINUOUS
 10
92.957036
 20
246.427787
 40
5.067078
 50
154.521197
 51
-120.134142
  0
ARC
  8
1
 62
7
  6
CONTINUOUS
 10
87.869424
 20
230.123703
 40
3.554171
 50
-11.331887
 51
45.000000
  0
ARC
  8
1
 62
7
  6
CONTINUOUS
 10
87.869424
 20
230.123703
 40
5.067078
 50
-25.478803
 51
59.865858
  0
ARC
  8
1
 62
7
  6
CONTINUOUS
 10
92.926408
 20
237.019156
 40
5.067078
 50
119.933117
 51
-120.134142
  0
ARC
  8
1
 62
7
  6
CONTINUOUS
 10
92.926408
 20
237.019156
 40
3.554171
 50
135.000000
 51
-135.000000
  0
ARC
  8
1
 62
7
  6
CONTINUOUS
 10
87.900052
 20
239.532334
 40
5.067078
 50
-60.066883
 51
59.865858
  0
ARC
  8
1
 62
7
  6
CONTINUOUS
 10
87.900052
 20
239.532334
 40
3.554171
 50
-45.000000
 51
45.000000
  0
ARC
  8
1
 62
7
  6
CONTINUOUS
 10
87.884815
 20
243.923507
 40
3.554171
 50
-45.000000
 51
-37.953425
  0
ARC
  8
1
 62
7
  6
CONTINUOUS
 10
87.884815
 20
243.923507
 40
3.554171
 50
-11.331887
 51
45.000000
  0
ARC
  8
1
 62
7
  6
CONTINUOUS
 10
87.884815
 20
243.923507
 40
5.067078
 50
-60.066883
 51
-46.386973
  0
ARC
  8
1
 62
7
  6
CONTINUOUS
 10
87.884815
 20
243.923507
 40
5.067078
 50
-25.478803
 51
59.865858
  0
ARC
  8
1
 62
7
  6
CONTINUOUS
 10
92.941645
 20
232.627983
 40
3.554171
 50
135.000000
 51
142.046575
  0
ARC
  8
1
 62
7
  6
CONTINUOUS
 10
92.941645
 20
232.627983
 40
3.554171
 50
168.668113
 51
-135.000000
  0
ARC
  8
1
 62
7
  6
CONTINUOUS
 10
92.941645
 20
232.627983
 40
5.067078
 50
119.933117
 51
133.613027
  0
ARC
  8
1
 62
7
  6
CONTINUOUS
 10
92.941645
 20
232.627983
 40
5.067078
 50
154.521197
 51
-120.134142
  0
ARC
  8
1
 62
7
  6
CONTINUOUS
 10
92.926254
 20
223.204023
 40
5.067078
 50
119.933117
 51
-120.134142
  0
ARC
  8
1
 62
7
  6
CONTINUOUS
 10
92.926254
 20
223.204023
 40
3.554171
 50
135.000000
 51
-135.000000
  0
ARC
  8
1
 62
7
  6
CONTINUOUS
 10
87.899897
 20
225.717201
 40
5.067078
 50
-60.066883
 51
59.865858
  0
ARC
  8
1
 62
7
  6
CONTINUOUS
 10
87.899897
 20
225.717201
 40
3.554171
 50
-45.000000
 51
45.000000
  0
ARC
  8
1
 62
7
  6
CONTINUOUS
 10
87.884660
 20
230.108374
 40
5.067078
 50
-60.066883
 51
-46.386973
  0
ARC
  8
1
 62
7
  6
CONTINUOUS
 10
92.941490
 20
218.812850
 40
3.554171
 50
135.000000
 51
142.046575
  0
ARC
  8
1
 62
7
  6
CONTINUOUS
 10
92.941490
 20
218.812850
 40
3.554171
 50
168.668113
 51
-135.000000
  0
ARC
  8
1
 62
7
  6
CONTINUOUS
 10
92.941490
 20
218.812850
 40
5.067078
 50
119.933117
 51
133.613027
  0
ARC
  8
1
 62
7
  6
CONTINUOUS
 10
92.941490
 20
218.812850
 40
5.067078
 50
154.521197
 51
-120.134142
  0
ARC
  8
1
 62
7
  6
CONTINUOUS
 10
92.910863
 20
209.404218
 40
5.067078
 50
119.933117
 51
-120.134142
  0
ARC
  8
1
 62
7
  6
CONTINUOUS
 10
92.910863
 20
209.404218
 40
3.554171
 50
135.000000
 51
-135.000000
  0
ARC
  8
1
 62
7
  6
CONTINUOUS
 10
87.884506
 20
211.917397
 40
5.067078
 50
-60.066883
 51
59.865858
  0
ARC
  8
1
 62
7
  6
CONTINUOUS
 10
87.884506
 20
211.917397
 40
3.554171
 50
-45.000000
 51
45.000000
  0
ARC
  8
1
 62
7
  6
CONTINUOUS
 10
87.869269
 20
216.308570
 40
3.554171
 50
-45.000000
 51
-37.953425
  0
ARC
  8
1
 62
7
  6
CONTINUOUS
 10
87.869269
 20
216.308570
 40
3.554171
 50
-11.331887
 51
45.000000
  0
ARC
  8
1
 62
7
  6
CONTINUOUS
 10
87.869269
 20
216.308570
 40
5.067078
 50
-60.066883
 51
-46.386973
  0
ARC
  8
1
 62
7
  6
CONTINUOUS
 10
87.869269
 20
216.308570
 40
5.067078
 50
-25.478803
 51
59.865858
  0
ARC
  8
1
 62
7
  6
CONTINUOUS
 10
92.926099
 20
205.013046
 40
5.067078
 50
119.933117
 51
133.613027
  0
ARC
  8
1
 62
7
  6
CONTINUOUS
 10
113.211644
 20
278.054456
 40
5.067078
 50
119.933117
 51
-120.134142
  0
ARC
  8
1
 62
7
  6
CONTINUOUS
 10
113.211644
 20
278.054456
 40
3.554171
 50
135.000000
 51
-135.000000
  0
ARC
  8
1
 62
7
  6
CONTINUOUS
 10
108.185287
 20
280.567635
 40
5.067078
 50
-60.066883
 51
59.865858
  0
ARC
  8
1
 62
7
  6
CONTINUOUS
 10
108.185287
 20
280.567635
 40
3.554171
 50
-45.000000
 51
45.000000
  0
ARC
  8
1
 62
7
  6
CONTINUOUS
 10
108.170051
 20
284.958807
 40
3.554171
 50
-45.000000
 51
-37.953425
  0
ARC
  8
1
 62
7
  6
CONTINUOUS
 10
108.170051
 20
284.958807
 40
3.554171
 50
-11.331887
 51
45.000000
  0
ARC
  8
1
 62
7
  6
CONTINUOUS
 10
108.170051
 20
284.958807
 40
5.067078
 50
-60.066883
 51
-46.386973
  0
ARC
  8
1
 62
7
  6
CONTINUOUS
 10
108.170051
 20
284.958807
 40
5.067078
 50
-25.478803
 51
59.865858
  0
ARC
  8
1
 62
7
  6
CONTINUOUS
 10
113.226880
 20
273.663284
 40
3.554171
 50
135.000000
 51
142.046575
  0
ARC
  8
1
 62
7
  6
CONTINUOUS
 10
113.226880
 20
273.663284
 40
3.554171
 50
168.668113
 51
-135.000000
  0
ARC
  8
1
 62
7
  6
CONTINUOUS
 10
113.226880
 20
273.663284
 40
5.067078
 50
119.933117
 51
133.613027
  0
ARC
  8
1
 62
7
  6
CONTINUOUS
 10
113.226880
 20
273.663284
 40
5.067078
 50
154.521197
 51
-120.134142
  0
ARC
  8
1
 62
7
  6
CONTINUOUS
 10
113.227035
 20
291.854260
 40
5.067078
 50
119.933117
 51
-120.134142
  0
ARC
  8
1
 62
7
  6
CONTINUOUS
 10
113.227035
 20
291.854260
 40
3.554171
 50
135.000000
 51
-135.000000
  0
ARC
  8
1
 62
7
  6
CONTINUOUS
 10
108.200678
 20
294.367439
 40
5.067078
 50
-60.066883
 51
59.865858
  0
ARC
  8
1
 62
7
  6
CONTINUOUS
 10
108.200678
 20
294.367439
 40
3.554171
 50
-45.000000
 51
45.000000
  0
ARC
  8
1
 62
7
  6
CONTINUOUS
 10
113.242271
 20
287.463088
 40
3.554171
 50
135.000000
 51
142.046575
  0
ARC
  8
1
 62
7
  6
CONTINUOUS
 10
113.242271
 20
287.463088
 40
3.554171
 50
168.668113
 51
-135.000000
  0
ARC
  8
1
 62
7
  6
CONTINUOUS
 10
113.242271
 20
287.463088
 40
5.067078
 50
119.933117
 51
133.613027
  0
ARC
  8
1
 62
7
  6
CONTINUOUS
 10
113.242271
 20
287.463088
 40
5.067078
 50
154.521197
 51
-120.134142
  0
ARC
  8
1
 62
7
  6
CONTINUOUS
 10
108.139269
 20
257.359199
 40
3.554171
 50
-11.331887
 51
45.000000
  0
ARC
  8
1
 62
7
  6
CONTINUOUS
 10
108.139269
 20
257.359199
 40
5.067078
 50
-25.478803
 51
59.865858
  0
ARC
  8
1
 62
7
  6
CONTINUOUS
 10
113.196253
 20
264.254652
 40
5.067078
 50
119.933117
 51
-120.134142
  0
ARC
  8
1
 62
7
  6
CONTINUOUS
 10
113.196253
 20
264.254652
 40
3.554171
 50
135.000000
 51
-135.000000
  0
ARC
  8
1
 62
7
  6
CONTINUOUS
 10
108.169896
 20
266.767831
 40
5.067078
 50
-60.066883
 51
59.865858
  0
ARC
  8
1
 62
7
  6
CONTINUOUS
 10
108.169896
 20
266.767831
 40
3.554171
 50
-45.000000
 51
45.000000
  0
ARC
  8
1
 62
7
  6
CONTINUOUS
 10
108.154660
 20
271.159003
 40
3.554171
 50
-45.000000
 51
-37.953425
  0
ARC
  8
1
 62
7
  6
CONTINUOUS
 10
108.154660
 20
271.159003
 40
3.554171
 50
-11.331887
 51
45.000000
  0
ARC
  8
1
 62
7
  6
CONTINUOUS
 10
108.154660
 20
271.159003
 40
5.067078
 50
-60.066883
 51
-46.386973
  0
ARC
  8
1
 62
7
  6
CONTINUOUS
 10
108.154660
 20
271.159003
 40
5.067078
 50
-25.478803
 51
59.865858
  0
ARC
  8
1
 62
7
  6
CONTINUOUS
 10
113.211489
 20
259.863480
 40
3.554171
 50
135.000000
 51
142.046575
  0
ARC
  8
1
 62
7
  6
CONTINUOUS
 10
113.211489
 20
259.863480
 40
3.554171
 50
168.668113
 51
-135.000000
  0
ARC
  8
1
 62
7
  6
CONTINUOUS
 10
113.211489
 20
259.863480
 40
5.067078
 50
119.933117
 51
133.613027
  0
ARC
  8
1
 62
7
  6
CONTINUOUS
 10
113.211489
 20
259.863480
 40
5.067078
 50
154.521197
 51
-120.134142
  0
ARC
  8
1
 62
7
  6
CONTINUOUS
 10
113.196098
 20
250.439519
 40
5.067078
 50
119.933117
 51
-120.134142
  0
ARC
  8
1
 62
7
  6
CONTINUOUS
 10
113.196098
 20
250.439519
 40
3.554171
 50
135.000000
 51
-135.000000
  0
ARC
  8
1
 62
7
  6
CONTINUOUS
 10
108.169741
 20
252.952697
 40
5.067078
 50
-60.066883
 51
59.865858
  0
ARC
  8
1
 62
7
  6
CONTINUOUS
 10
108.169741
 20
252.952697
 40
3.554171
 50
-45.000000
 51
45.000000
  0
ARC
  8
1
 62
7
  6
CONTINUOUS
 10
108.154505
 20
257.343870
 40
5.067078
 50
-60.066883
 51
-46.386973
  0
ARC
  8
1
 62
7
  6
CONTINUOUS
 10
113.211334
 20
246.048346
 40
3.554171
 50
135.000000
 51
142.046575
  0
ARC
  8
1
 62
7
  6
CONTINUOUS
 10
113.211334
 20
246.048346
 40
3.554171
 50
168.668113
 51
-135.000000
  0
ARC
  8
1
 62
7
  6
CONTINUOUS
 10
113.211334
 20
246.048346
 40
5.067078
 50
119.933117
 51
133.613027
  0
ARC
  8
1
 62
7
  6
CONTINUOUS
 10
113.211334
 20
246.048346
 40
5.067078
 50
154.521197
 51
-120.134142
  0
ARC
  8
1
 62
7
  6
CONTINUOUS
 10
108.123723
 20
229.744262
 40
3.554171
 50
-11.331887
 51
45.000000
  0
ARC
  8
1
 62
7
  6
CONTINUOUS
 10
108.123723
 20
229.744262
 40
5.067078
 50
-25.478803
 51
59.865858
  0
ARC
  8
1
 62
7
  6
CONTINUOUS
 10
113.180707
 20
236.639715
 40
5.067078
 50
119.933117
 51
-120.134142
  0
ARC
  8
1
 62
7
  6
CONTINUOUS
 10
113.180707
 20
236.639715
 40
3.554171
 50
135.000000
 51
-135.000000
  0
ARC
  8
1
 62
7
  6
CONTINUOUS
 10
108.154350
 20
239.152893
 40
5.067078
 50
-60.066883
 51
59.865858
  0
ARC
  8
1
 62
7
  6
CONTINUOUS
 10
108.154350
 20
239.152893
 40
3.554171
 50
-45.000000
 51
45.000000
  0
ARC
  8
1
 62
7
  6
CONTINUOUS
 10
108.139114
 20
243.544066
 40
3.554171
 50
-45.000000
 51
-37.953425
  0
ARC
  8
1
 62
7
  6
CONTINUOUS
 10
108.139114
 20
243.544066
 40
3.554171
 50
-11.331887
 51
45.000000
  0
ARC
  8
1
 62
7
  6
CONTINUOUS
 10
108.139114
 20
243.544066
 40
5.067078
 50
-60.066883
 51
-46.386973
  0
ARC
  8
1
 62
7
  6
CONTINUOUS
 10
108.139114
 20
243.544066
 40
5.067078
 50
-25.478803
 51
59.865858
  0
ARC
  8
1
 62
7
  6
CONTINUOUS
 10
113.195943
 20
232.248542
 40
3.554171
 50
135.000000
 51
142.046575
  0
ARC
  8
1
 62
7
  6
CONTINUOUS
 10
113.195943
 20
232.248542
 40
3.554171
 50
168.668113
 51
-135.000000
  0
ARC
  8
1
 62
7
  6
CONTINUOUS
 10
113.195943
 20
232.248542
 40
5.067078
 50
119.933117
 51
133.613027
  0
ARC
  8
1
 62
7
  6
CONTINUOUS
 10
113.195943
 20
232.248542
 40
5.067078
 50
154.521197
 51
-120.134142
  0
ARC
  8
1
 62
7
  6
CONTINUOUS
 10
113.180552
 20
222.824582
 40
5.067078
 50
119.933117
 51
-120.134142
  0
ARC
  8
1
 62
7
  6
CONTINUOUS
 10
113.180552
 20
222.824582
 40
3.554171
 50
135.000000
 51
-135.000000
  0
ARC
  8
1
 62
7
  6
CONTINUOUS
 10
108.154196
 20
225.337760
 40
5.067078
 50
-60.066883
 51
59.865858
  0
ARC
  8
1
 62
7
  6
CONTINUOUS
 10
108.154196
 20
225.337760
 40
3.554171
 50
-45.000000
 51
45.000000
  0
ARC
  8
1
 62
7
  6
CONTINUOUS
 10
108.138959
 20
229.728933
 40
5.067078
 50
-60.066883
 51
-46.386973
  0
ARC
  8
1
 62
7
  6
CONTINUOUS
 10
113.195789
 20
218.433409
 40
3.554171
 50
135.000000
 51
142.046575
  0
ARC
  8
1
 62
7
  6
CONTINUOUS
 10
113.195789
 20
218.433409
 40
3.554171
 50
168.668113
 51
-135.000000
  0
ARC
  8
1
 62
7
  6
CONTINUOUS
 10
113.195789
 20
218.433409
 40
5.067078
 50
119.933117
 51
133.613027
  0
ARC
  8
1
 62
7
  6
CONTINUOUS
 10
113.195789
 20
218.433409
 40
5.067078
 50
154.521197
 51
-120.134142
  0
ARC
  8
1
 62
7
  6
CONTINUOUS
 10
113.165161
 20
209.024777
 40
5.067078
 50
119.933117
 51
-120.134142
  0
ARC
  8
1
 62
7
  6
CONTINUOUS
 10
113.165161
 20
209.024777
 40
3.554171
 50
135.000000
 51
-135.000000
  0
ARC
  8
1
 62
7
  6
CONTINUOUS
 10
108.138804
 20
211.537956
 40
5.067078
 50
-60.066883
 51
59.865858
  0
ARC
  8
1
 62
7
  6
CONTINUOUS
 10
108.138804
 20
211.537956
 40
3.554171
 50
-45.000000
 51
45.000000
  0
ARC
  8
1
 62
7
  6
CONTINUOUS
 10
108.123568
 20
215.929129
 40
3.554171
 50
-45.000000
 51
-37.953425
  0
ARC
  8
1
 62
7
  6
CONTINUOUS
 10
108.123568
 20
215.929129
 40
3.554171
 50
-11.331887
 51
45.000000
  0
ARC
  8
1
 62
7
  6
CONTINUOUS
 10
108.123568
 20
215.929129
 40
5.067078
 50
-60.066883
 51
-46.386973
  0
ARC
  8
1
 62
7
  6
CONTINUOUS
 10
108.123568
 20
215.929129
 40
5.067078
 50
-25.478803
 51
59.865858
  0
ARC
  8
1
 62
7
  6
CONTINUOUS
 10
113.180398
 20
204.633605
 40
5.067078
 50
119.933117
 51
133.613027
  0
ARC
  8
1
 62
7
  6
CONTINUOUS
 10
261.399582
 20
309.861646
 40
5.067078
 50
39.124318
 51
149.865858
  0
ARC
  8
1
 62
7
  6
CONTINUOUS
 10
258.895301
 20
314.933866
 40
3.554171
 50
-101.331887
 51
-25.464619
  0
ARC
  8
1
 62
7
  6
CONTINUOUS
 10
261.399582
 20
309.861646
 40
3.554171
 50
29.965377
 51
135.000000
  0
ARC
  8
1
 62
7
  6
CONTINUOUS
 10
251.990950
 20
309.892273
 40
3.554171
 50
26.409514
 51
135.000000
  0
ARC
  8
1
 62
7
  6
CONTINUOUS
 10
251.990950
 20
309.892273
 40
5.067078
 50
24.871374
 51
149.865858
  0
LINE
  8
1
 62
7
  6
CONTINUOUS
 10
580.705882
 20
308.415541
 11
580.705882
 21
216.415541
  0
LINE
  8
1
 62
7
  6
CONTINUOUS
 10
490.705882
 20
308.415541
 11
580.705882
 21
308.415541
  0
LINE
  8
1
 62
7
  6
CONTINUOUS
 10
490.705882
 20
285.015541
 11
490.705882
 21
308.415541
  0
LINE
  8
1
 62
7
  6
CONTINUOUS
 10
490.705882
 20
216.415541
 11
490.705882
 21
225.015541
  0
LINE
  8
1
 62
7
  6
CONTINUOUS
 10
399.705882
 20
285.015541
 11
399.705882
 21
308.415541
  0
LINE
  8
1
 62
7
  6
CONTINUOUS
 10
399.705882
 20
308.415541
 11
368.705882
 21
308.415541
  0
LINE
  8
1
 62
7
  6
CONTINUOUS
 10
400.205882
 20
216.415541
 11
400.205882
 21
225.015541
  0
LINE
  8
1
 62
7
  6
CONTINUOUS
 10
257.705882
 20
308.415541
 11
257.705882
 21
285.015541
  0
LINE
  8
1
 62
7
  6
CONTINUOUS
 10
288.705882
 20
308.415541
 11
257.705882
 21
308.415541
  0
LINE
  8
1
 62
7
  6
CONTINUOUS
 10
257.705882
 20
225.015541
 11
257.705882
 21
216.415541
  0
LINE
  8
1
 62
7
  6
CONTINUOUS
 10
66.705882
 20
308.415541
 11
66.705882
 21
216.415541
  0
LINE
  8
1
 62
7
  6
CONTINUOUS
 10
156.705882
 20
308.415541
 11
66.705882
 21
308.415541
  0
ARC
  8
1
 62
7
  6
CONTINUOUS
 10
331.940050
 20
448.627196
 40
2.010543
 50
90.000000
 51
180.000000
  0
LINE
  8
1
 62
7
  6
CONTINUOUS
 10
329.929507
 20
378.258201
 11
329.929507
 21
448.627196
  0
ARC
  8
1
 62
7
  6
CONTINUOUS
 10
327.918965
 20
448.627196
 40
2.010543
 50
0.000000
 51
90.000000
  0
LINE
  8
1
 62
7
  6
CONTINUOUS
 10
329.929507
 20
378.258201
 11
329.929507
 21
448.627196
  0
LINE
  8
1
 62
7
  6
CONTINUOUS
 10
400.197975
 20
448.627196
 11
400.197975
 21
361.771751
  0
LINE
  8
1
 62
7
  6
CONTINUOUS
 10
180.305882
 20
310.015541
 11
180.305882
 21
171.415541
  0
LINE
  8
1
 62
7
  6
CONTINUOUS
 10
184.305882
 20
310.015541
 11
162.705882
 21
310.015541
  0
LINE
  8
1
 62
7
  6
CONTINUOUS
 10
184.305882
 20
171.415541
 11
162.705882
 21
171.415541
  0
LINE
  8
1
 62
7
  6
CONTINUOUS
 10
180.305882
 20
310.015541
 11
181.548214
 21
305.379097
  0
LINE
  8
1
 62
7
  6
CONTINUOUS
 10
180.305882
 20
310.015541
 11
179.063551
 21
305.379097
  0
LINE
  8
1
 62
7
  6
CONTINUOUS
 10
180.305882
 20
171.415541
 11
179.063551
 21
176.051985
  0
LINE
  8
1
 62
7
  6
CONTINUOUS
 10
180.305882
 20
171.415541
 11
181.548214
 21
176.051985
  0
TEXT
  8
1
 62
7
  6
CONTINUOUS
 10
179.305882
 20
235.815541
 40
6.000000
 41
0.566667
  1
140
  7
KANJI
 50
90.000000
 51
0.000000
  0
LINE
  8
1
 62
7
  6
CONTINUOUS
 10
255.705882
 20
334.949805
 11
401.705882
 21
334.949805
  0
LINE
  8
1
 62
7
  6
CONTINUOUS
 10
255.705882
 20
338.949805
 11
255.705882
 21
289.015541
  0
LINE
  8
1
 62
7
  6
CONTINUOUS
 10
401.705882
 20
338.949805
 11
401.705882
 21
289.015541
  0
LINE
  8
1
 62
7
  6
CONTINUOUS
 10
255.705882
 20
334.949805
 11
260.342326
 21
336.192137
  0
LINE
  8
1
 62
7
  6
CONTINUOUS
 10
255.705882
 20
334.949805
 11
260.342326
 21
333.707474
  0
LINE
  8
1
 62
7
  6
CONTINUOUS
 10
401.705882
 20
334.949805
 11
397.069438
 21
333.707474
  0
LINE
  8
1
 62
7
  6
CONTINUOUS
 10
401.705882
 20
334.949805
 11
397.069438
 21
336.192137
  0
TEXT
  8
1
 62
7
  6
CONTINUOUS
 10
323.805882
 20
335.949805
 40
6.000000
 41
0.566667
  1
146
  7
KANJI
 50
0.000000
 51
0.000000
  0
LINE
  8
1
 62
7
  6
CONTINUOUS
 10
487.105882
 20
334.949805
 11
580.705882
 21
334.949805
  0
LINE
  8
1
 62
7
  6
CONTINUOUS
 10
487.105882
 20
338.949805
 11
487.105882
 21
312.415541
  0
LINE
  8
1
 62
7
  6
CONTINUOUS
 10
580.705882
 20
338.949805
 11
580.705882
 21
312.415541
  0
LINE
  8
1
 62
7
  6
CONTINUOUS
 10
487.105882
 20
334.949805
 11
491.742326
 21
336.192137
  0
LINE
  8
1
 62
7
  6
CONTINUOUS
 10
487.105882
 20
334.949805
 11
491.742326
 21
333.707474
  0
LINE
  8
1
 62
7
  6
CONTINUOUS
 10
580.705882
 20
334.949805
 11
576.069438
 21
333.707474
  0
LINE
  8
1
 62
7
  6
CONTINUOUS
 10
580.705882
 20
334.949805
 11
576.069438
 21
336.192137
  0
TEXT
  8
1
 62
7
  6
CONTINUOUS
 10
527.305882
 20
335.949805
 40
6.000000
 41
0.629630
  1
93.6
  7
KANJI
 50
0.000000
 51
0.000000
  0
TEXT
  8
15
 62
96
  6
DIVIDE
 10
714.201719
 20
535.649077
 40
6.001769
 41
0.833333
  1
－－－－－－－
  7
KANJI
 50
0.000000
 51
0.000000
  0
TEXT
  8
15
 62
96
  6
CONTINUOUS
 10
709.786232
 20
121.541683
 40
6.000000
 41
0.566686
  1
G13007-04-03806
  7
KANJI
 50
0.000000
 51
0.000000
  0
TEXT
  8
15
 62
96
  6
CONTINUOUS
 10
654.568681
 20
56.526660
 40
7.000000
 41
0.500000
  1
G13007-04-07906
  7
KANJI
 50
0.000000
 51
0.000000
  0
TEXT
  8
15
 62
96
  6
CONTINUOUS
 10
625.843729
 20
69.030416
 40
6.001769
 41
0.833333
  1
１：２
  7
KANJI
 50
0.000000
 51
0.000000
  0
LINE
  8
1
 62
7
  6
CONTINUOUS
 10
246.994620
 20
420.680652
 11
246.994620
 21
430.331257
  0
LINE
  8
1
 62
7
  6
CONTINUOUS
 10
246.994620
 20
430.331257
 11
256.251903
 21
430.544298
  0
LINE
  8
1
 62
7
  6
CONTINUOUS
 10
256.409339
 20
420.468442
 11
246.994620
 21
420.680652
  0
LINE
  8
1
 62
7
  6
CONTINUOUS
 10
259.661039
 20
448.627196
 11
259.661039
 21
415.683928
  0
LINE
  8
1
 62
7
  6
CONTINUOUS
 10
246.994620
 20
400.575225
 11
246.994620
 21
410.225830
  0
LINE
  8
1
 62
7
  6
CONTINUOUS
 10
246.994620
 20
410.225830
 11
256.544698
 21
410.225830
  0
LINE
  8
1
 62
7
  6
CONTINUOUS
 10
256.544698
 20
400.575225
 11
246.994620
 21
400.575225
  0
LINE
  8
1
 62
7
  6
CONTINUOUS
 10
259.661039
 20
412.941880
 11
259.661039
 21
395.578501
  0
ARC
  8
1
 62
7
  6
CONTINUOUS
 10
255.548638
 20
392.618190
 40
3.554171
 50
25.140987
 51
135.000000
  0
ARC
  8
1
 62
7
  6
CONTINUOUS
 10
255.548638
 20
392.618190
 40
5.067078
 50
25.021848
 51
149.865858
  0
ARC
  8
1
 62
7
  6
CONTINUOUS
 10
357.817706
 20
433.548126
 40
10.052714
 50
90.000000
 51
180.000000
  0
ARC
  8
1
 62
7
  6
CONTINUOUS
 10
357.676259
 20
433.548126
 40
8.042171
 50
90.000000
 51
180.000000
  0
LINE
  8
1
 62
7
  6
CONTINUOUS
 10
349.634088
 20
415.129058
 11
349.634088
 21
433.548126
  0
LINE
  8
1
 62
7
  6
CONTINUOUS
 10
347.764992
 20
433.548126
 11
347.764992
 21
415.252187
  0
LINE
  8
1
 62
7
  6
CONTINUOUS
 10
347.764992
 20
433.548126
 11
347.760402
 21
417.743927
  0
ARC
  8
1
 62
7
  6
CONTINUOUS
 10
360.022217
 20
376.862536
 40
8.042171
 50
180.000000
 51
-90.000000
  0
ARC
  8
1
 62
7
  6
CONTINUOUS
 10
360.276309
 20
376.862536
 40
10.052714
 50
180.000000
 51
-90.000000
  0
LINE
  8
1
 62
7
  6
CONTINUOUS
 10
351.980046
 20
415.252187
 11
351.980046
 21
376.862536
  0
ARC
  8
1
 62
7
  6
CONTINUOUS
 10
338.347463
 20
412.631271
 40
5.067078
 50
29.933117
 51
149.865858
  0
ARC
  8
1
 62
7
  6
CONTINUOUS
 10
338.347463
 20
412.631271
 40
3.554171
 50
45.000000
 51
135.000000
  0
ARC
  8
1
 62
7
  6
CONTINUOUS
 10
340.860641
 20
417.657628
 40
5.067078
 50
-150.066883
 51
-30.134142
  0
ARC
  8
1
 62
7
  6
CONTINUOUS
 10
340.860641
 20
417.657628
 40
3.554171
 50
-135.000000
 51
-45.000000
  0
ARC
  8
1
 62
7
  6
CONTINUOUS
 10
345.251814
 20
417.672864
 40
3.554171
 50
-135.000000
 51
-127.953425
  0
ARC
  8
1
 62
7
  6
CONTINUOUS
 10
345.251814
 20
417.672864
 40
3.554171
 50
-101.331887
 51
-45.000000
  0
ARC
  8
1
 62
7
  6
CONTINUOUS
 10
333.956290
 20
412.616035
 40
3.554171
 50
45.000000
 51
52.046575
  0
ARC
  8
1
 62
7
  6
CONTINUOUS
 10
333.956290
 20
412.616035
 40
5.067078
 50
29.933117
 51
43.613027
  0
ARC
  8
1
 62
7
  6
CONTINUOUS
 10
347.710417
 20
412.523533
 40
5.067078
 50
89.451412
 51
149.865858
  0
ARC
  8
1
 62
7
  6
CONTINUOUS
 10
347.710417
 20
412.523533
 40
3.554171
 50
89.120175
 51
135.000000
  0
ARC
  8
1
 62
7
  6
CONTINUOUS
 10
345.251814
 20
417.672864
 40
5.067078
 50
-115.478803
 51
-30.134142
  0
ARC
  8
1
 62
7
  6
CONTINUOUS
 10
347.710417
 20
412.523533
 40
5.067078
 50
32.582017
 51
67.688543
  0
LINE
  8
1
 62
7
  6
CONTINUOUS
 10
350.223595
 20
376.862536
 11
350.223595
 21
414.808099
  0
ARC
  8
1
 62
7
  6
CONTINUOUS
 10
347.710417
 20
412.294921
 40
3.554171
 50
45.000000
 51
53.561373
  0
ARC
  8
1
 62
7
  6
CONTINUOUS
 10
333.956290
 20
412.616035
 40
5.067078
 50
64.521197
 51
149.865858
  0
ARC
  8
1
 62
7
  6
CONTINUOUS
 10
331.452010
 20
417.688255
 40
5.067078
 50
-115.478803
 51
-30.134142
  0
ARC
  8
1
 62
7
  6
CONTINUOUS
 10
331.452010
 20
417.688255
 40
3.554171
 50
-101.331887
 51
-45.000000
  0
ARC
  8
1
 62
7
  6
CONTINUOUS
 10
327.060837
 20
417.673019
 40
5.067078
 50
-150.066883
 51
-30.134142
  0
ARC
  8
1
 62
7
  6
CONTINUOUS
 10
324.547659
 20
412.646662
 40
5.067078
 50
29.933117
 51
149.865858
  0
ARC
  8
1
 62
7
  6
CONTINUOUS
 10
324.547659
 20
412.646662
 40
3.554171
 50
45.000000
 51
135.000000
  0
ARC
  8
1
 62
7
  6
CONTINUOUS
 10
327.060837
 20
417.673019
 40
3.554171
 50
-135.000000
 51
-45.000000
  0
ARC
  8
1
 62
7
  6
CONTINUOUS
 10
320.156486
 20
412.631426
 40
3.554171
 50
45.000000
 51
52.046575
  0
ARC
  8
1
 62
7
  6
CONTINUOUS
 10
320.156486
 20
412.631426
 40
5.067078
 50
29.933117
 51
43.613027
  0
LINE
  8
1
 62
7
  6
CONTINUOUS
 10
291.390140
 20
443.600839
 11
307.590594
 21
443.600839
  0
LINE
  8
1
 62
7
  6
CONTINUOUS
 10
307.732041
 20
441.590297
 11
291.390140
 21
441.590297
  0
ARC
  8
1
 62
7
  6
CONTINUOUS
 10
307.590594
 20
433.548126
 40
10.052714
 50
0.000000
 51
90.000000
  0
ARC
  8
1
 62
7
  6
CONTINUOUS
 10
307.732041
 20
433.548126
 40
8.042171
 50
0.000000
 51
90.000000
  0
LINE
  8
1
 62
7
  6
CONTINUOUS
 10
315.774211
 20
415.175232
 11
315.774211
 21
433.548126
  0
LINE
  8
1
 62
7
  6
CONTINUOUS
 10
317.643308
 20
433.548126
 11
317.643308
 21
417.031336
  0
ARC
  8
1
 62
7
  6
CONTINUOUS
 10
305.218862
 20
376.850821
 40
8.042171
 50
-90.000000
 51
0.000000
  0
ARC
  8
1
 62
7
  6
CONTINUOUS
 10
305.086314
 20
376.850821
 40
10.052714
 50
-90.000000
 51
0.000000
  0
LINE
  8
1
 62
7
  6
CONTINUOUS
 10
291.390140
 20
368.808650
 11
305.218862
 21
368.808650
  0
LINE
  8
1
 62
7
  6
CONTINUOUS
 10
305.086314
 20
366.798107
 11
291.390140
 21
366.798107
  0
ARC
  8
1
 62
7
  6
CONTINUOUS
 10
310.747855
 20
412.662053
 40
5.067078
 50
29.933117
 51
149.865858
  0
ARC
  8
1
 62
7
  6
CONTINUOUS
 10
310.747855
 20
412.662053
 40
3.554171
 50
45.000000
 51
135.000000
  0
ARC
  8
1
 62
7
  6
CONTINUOUS
 10
313.261033
 20
417.688410
 40
5.067078
 50
-150.066883
 51
-30.134142
  0
ARC
  8
1
 62
7
  6
CONTINUOUS
 10
313.261033
 20
417.688410
 40
3.554171
 50
-135.000000
 51
-45.000000
  0
ARC
  8
1
 62
7
  6
CONTINUOUS
 10
317.652206
 20
417.703646
 40
3.554171
 50
-135.000000
 51
-127.953425
  0
ARC
  8
1
 62
7
  6
CONTINUOUS
 10
317.652206
 20
417.703646
 40
3.554171
 50
-101.331887
 51
-45.000000
  0
ARC
  8
1
 62
7
  6
CONTINUOUS
 10
317.652206
 20
417.703646
 40
5.067078
 50
-150.066883
 51
-136.386973
  0
ARC
  8
1
 62
7
  6
CONTINUOUS
 10
317.652206
 20
417.703646
 40
5.067078
 50
-115.478803
 51
-30.134142
  0
ARC
  8
1
 62
7
  6
CONTINUOUS
 10
306.356682
 20
412.646817
 40
5.067078
 50
29.933117
 51
43.613027
  0
ARC
  8
1
 62
7
  6
CONTINUOUS
 10
320.156486
 20
412.631426
 40
3.554171
 50
78.668113
 51
135.000000
  0
ARC
  8
1
 62
7
  6
CONTINUOUS
 10
320.156486
 20
412.631426
 40
5.067078
 50
64.521197
 51
149.865858
  0
ARC
  8
1
 62
7
  6
CONTINUOUS
 10
313.261033
 20
397.582983
 40
5.067078
 50
-150.066883
 51
-30.134142
  0
ARC
  8
1
 62
7
  6
CONTINUOUS
 10
313.261033
 20
397.582983
 40
3.554171
 50
-135.000000
 51
-45.000000
  0
ARC
  8
1
 62
7
  6
CONTINUOUS
 10
306.356682
 20
392.541390
 40
5.067078
 50
29.933117
 51
43.613027
  0
LINE
  8
1
 62
7
  6
CONTINUOUS
 10
317.643308
 20
412.636576
 11
317.643308
 21
395.039177
  0
LINE
  8
1
 62
7
  6
CONTINUOUS
 10
315.774211
 20
395.069804
 11
315.774211
 21
412.997436
  0
LINE
  8
1
 62
7
  6
CONTINUOUS
 10
313.261033
 20
376.850821
 11
313.261033
 21
392.515905
  0
LINE
  8
1
 62
7
  6
CONTINUOUS
 10
315.139027
 20
392.876772
 11
315.139027
 21
376.850821
  0
ARC
  8
1
 62
7
  6
CONTINUOUS
 10
290.052598
 20
417.734428
 40
3.554171
 50
-101.331887
 51
-45.000000
  0
ARC
  8
1
 62
7
  6
CONTINUOUS
 10
296.948051
 20
412.677444
 40
5.067078
 50
29.933117
 51
149.865858
  0
ARC
  8
1
 62
7
  6
CONTINUOUS
 10
296.948051
 20
412.677444
 40
3.554171
 50
45.000000
 51
135.000000
  0
ARC
  8
1
 62
7
  6
CONTINUOUS
 10
299.461229
 20
417.703801
 40
5.067078
 50
-150.066883
 51
-30.134142
  0
ARC
  8
1
 62
7
  6
CONTINUOUS
 10
299.461229
 20
417.703801
 40
3.554171
 50
-135.000000
 51
-45.000000
  0
ARC
  8
1
 62
7
  6
CONTINUOUS
 10
303.852402
 20
417.719037
 40
3.554171
 50
-135.000000
 51
-127.953425
  0
ARC
  8
1
 62
7
  6
CONTINUOUS
 10
303.852402
 20
417.719037
 40
3.554171
 50
-101.331887
 51
-45.000000
  0
ARC
  8
1
 62
7
  6
CONTINUOUS
 10
303.852402
 20
417.719037
 40
5.067078
 50
-150.066883
 51
-136.386973
  0
ARC
  8
1
 62
7
  6
CONTINUOUS
 10
303.852402
 20
417.719037
 40
5.067078
 50
-115.478803
 51
-30.134142
  0
ARC
  8
1
 62
7
  6
CONTINUOUS
 10
292.556878
 20
412.662208
 40
3.554171
 50
45.000000
 51
52.046575
  0
ARC
  8
1
 62
7
  6
CONTINUOUS
 10
292.556878
 20
412.662208
 40
3.554171
 50
78.668113
 51
135.000000
  0
ARC
  8
1
 62
7
  6
CONTINUOUS
 10
292.556878
 20
412.662208
 40
5.067078
 50
29.933117
 51
43.613027
  0
ARC
  8
1
 62
7
  6
CONTINUOUS
 10
306.356682
 20
412.646817
 40
3.554171
 50
78.668113
 51
135.000000
  0
ARC
  8
1
 62
7
  6
CONTINUOUS
 10
306.356682
 20
412.646817
 40
5.067078
 50
64.521197
 51
149.865858
  0
ARC
  8
1
 62
7
  6
CONTINUOUS
 10
290.052598
 20
397.629001
 40
3.554171
 50
-101.331887
 51
-45.000000
  0
ARC
  8
1
 62
7
  6
CONTINUOUS
 10
299.461229
 20
397.598374
 40
5.067078
 50
-150.066883
 51
-30.134142
  0
ARC
  8
1
 62
7
  6
CONTINUOUS
 10
299.461229
 20
397.598374
 40
3.554171
 50
-135.000000
 51
-45.000000
  0
ARC
  8
1
 62
7
  6
CONTINUOUS
 10
292.556878
 20
392.556781
 40
3.554171
 50
45.000000
 51
52.046575
  0
ARC
  8
1
 62
7
  6
CONTINUOUS
 10
292.556878
 20
392.556781
 40
3.554171
 50
78.668113
 51
135.000000
  0
ARC
  8
1
 62
7
  6
CONTINUOUS
 10
292.556878
 20
392.556781
 40
5.067078
 50
29.933117
 51
43.613027
  0
ARC
  8
1
 62
7
  6
CONTINUOUS
 10
299.461229
 20
397.598374
 40
5.067078
 50
-150.066883
 51
-30.134142
  0
ARC
  8
1
 62
7
  6
CONTINUOUS
 10
299.461229
 20
397.598374
 40
5.067078
 50
-150.066883
 51
-30.134142
  0
ARC
  8
1
 62
7
  6
CONTINUOUS
 10
303.852402
 20
397.613610
 40
3.554171
 50
-101.331887
 51
-45.000000
  0
ARC
  8
1
 62
7
  6
CONTINUOUS
 10
303.852402
 20
397.613610
 40
5.067078
 50
-115.478803
 51
-30.134142
  0
ARC
  8
1
 62
7
  6
CONTINUOUS
 10
306.356682
 20
392.541390
 40
3.554171
 50
78.668113
 51
135.000000
  0
ARC
  8
1
 62
7
  6
CONTINUOUS
 10
306.356682
 20
392.541390
 40
5.067078
 50
64.521197
 51
149.865858
  0
ARC
  8
1
 62
7
  6
CONTINUOUS
 10
292.556878
 20
392.556781
 40
5.067078
 50
64.521197
 51
149.865858
  0
ARC
  8
1
 62
7
  6
CONTINUOUS
 10
290.052598
 20
397.629001
 40
5.067078
 50
-115.478803
 51
-30.134142
  0
ARC
  8
1
 62
7
  6
CONTINUOUS
 10
285.661425
 20
397.613765
 40
5.067078
 50
-150.066883
 51
-30.134142
  0
ARC
  8
1
 62
7
  6
CONTINUOUS
 10
285.661425
 20
397.613765
 40
5.067078
 50
-150.066883
 51
-30.134142
  0
ARC
  8
1
 62
7
  6
CONTINUOUS
 10
292.556878
 20
412.662208
 40
5.067078
 50
64.521197
 51
149.865858
  0
ARC
  8
1
 62
7
  6
CONTINUOUS
 10
290.052598
 20
417.734428
 40
5.067078
 50
-115.478803
 51
-30.134142
  0
ARC
  8
1
 62
7
  6
CONTINUOUS
 10
285.661425
 20
417.719192
 40
5.067078
 50
-150.066883
 51
-30.134142
  0
ARC
  8
1
 62
7
  6
CONTINUOUS
 10
262.452990
 20
417.765211
 40
3.554171
 50
-101.331887
 51
-45.000000
  0
ARC
  8
1
 62
7
  6
CONTINUOUS
 10
262.452990
 20
417.765211
 40
5.067078
 50
-115.478803
 51
-30.134142
  0
ARC
  8
1
 62
7
  6
CONTINUOUS
 10
269.348442
 20
412.708226
 40
5.067078
 50
29.933117
 51
149.865858
  0
ARC
  8
1
 62
7
  6
CONTINUOUS
 10
269.348442
 20
412.708226
 40
3.554171
 50
45.000000
 51
135.000000
  0
ARC
  8
1
 62
7
  6
CONTINUOUS
 10
271.861621
 20
417.734583
 40
5.067078
 50
-150.066883
 51
-30.134142
  0
ARC
  8
1
 62
7
  6
CONTINUOUS
 10
271.861621
 20
417.734583
 40
3.554171
 50
-135.000000
 51
-45.000000
  0
ARC
  8
1
 62
7
  6
CONTINUOUS
 10
276.252794
 20
417.749820
 40
3.554171
 50
-135.000000
 51
-127.953425
  0
ARC
  8
1
 62
7
  6
CONTINUOUS
 10
276.252794
 20
417.749820
 40
3.554171
 50
-101.331887
 51
-45.000000
  0
ARC
  8
1
 62
7
  6
CONTINUOUS
 10
276.252794
 20
417.749820
 40
5.067078
 50
-150.066883
 51
-136.386973
  0
ARC
  8
1
 62
7
  6
CONTINUOUS
 10
276.252794
 20
417.749820
 40
5.067078
 50
-115.478803
 51
-30.134142
  0
ARC
  8
1
 62
7
  6
CONTINUOUS
 10
264.957270
 20
412.692990
 40
3.554171
 50
45.000000
 51
52.046575
  0
ARC
  8
1
 62
7
  6
CONTINUOUS
 10
264.957270
 20
412.692990
 40
3.554171
 50
78.668113
 51
135.000000
  0
ARC
  8
1
 62
7
  6
CONTINUOUS
 10
264.957270
 20
412.692990
 40
5.067078
 50
29.933117
 51
43.613027
  0
ARC
  8
1
 62
7
  6
CONTINUOUS
 10
264.957270
 20
412.692990
 40
5.067078
 50
64.521197
 51
149.865858
  0
ARC
  8
1
 62
7
  6
CONTINUOUS
 10
283.148247
 20
412.692835
 40
5.067078
 50
29.933117
 51
149.865858
  0
ARC
  8
1
 62
7
  6
CONTINUOUS
 10
283.148247
 20
412.692835
 40
3.554171
 50
45.000000
 51
135.000000
  0
ARC
  8
1
 62
7
  6
CONTINUOUS
 10
285.661425
 20
417.719192
 40
3.554171
 50
-135.000000
 51
-45.000000
  0
ARC
  8
1
 62
7
  6
CONTINUOUS
 10
290.052598
 20
417.734428
 40
3.554171
 50
-135.000000
 51
-127.953425
  0
ARC
  8
1
 62
7
  6
CONTINUOUS
 10
290.052598
 20
417.734428
 40
5.067078
 50
-150.066883
 51
-136.386973
  0
ARC
  8
1
 62
7
  6
CONTINUOUS
 10
278.757074
 20
412.677599
 40
3.554171
 50
45.000000
 51
52.046575
  0
ARC
  8
1
 62
7
  6
CONTINUOUS
 10
278.757074
 20
412.677599
 40
3.554171
 50
78.668113
 51
135.000000
  0
ARC
  8
1
 62
7
  6
CONTINUOUS
 10
278.757074
 20
412.677599
 40
5.067078
 50
29.933117
 51
43.613027
  0
ARC
  8
1
 62
7
  6
CONTINUOUS
 10
278.757074
 20
412.677599
 40
5.067078
 50
64.521197
 51
149.865858
  0
ARC
  8
1
 62
7
  6
CONTINUOUS
 10
262.452990
 20
397.659783
 40
3.554171
 50
-101.331887
 51
-45.000000
  0
ARC
  8
1
 62
7
  6
CONTINUOUS
 10
262.452990
 20
397.659783
 40
5.067078
 50
-115.478803
 51
-30.134142
  0
ARC
  8
1
 62
7
  6
CONTINUOUS
 10
269.348442
 20
392.602799
 40
5.067078
 50
29.933117
 51
149.865858
  0
ARC
  8
1
 62
7
  6
CONTINUOUS
 10
269.348442
 20
392.602799
 40
3.554171
 50
45.000000
 51
135.000000
  0
ARC
  8
1
 62
7
  6
CONTINUOUS
 10
271.861621
 20
397.629156
 40
5.067078
 50
-150.066883
 51
-30.134142
  0
ARC
  8
1
 62
7
  6
CONTINUOUS
 10
271.861621
 20
397.629156
 40
3.554171
 50
-135.000000
 51
-45.000000
  0
ARC
  8
1
 62
7
  6
CONTINUOUS
 10
276.252794
 20
397.644392
 40
3.554171
 50
-135.000000
 51
-127.953425
  0
ARC
  8
1
 62
7
  6
CONTINUOUS
 10
276.252794
 20
397.644392
 40
3.554171
 50
-101.331887
 51
-45.000000
  0
ARC
  8
1
 62
7
  6
CONTINUOUS
 10
276.252794
 20
397.644392
 40
5.067078
 50
-150.066883
 51
-136.386973
  0
ARC
  8
1
 62
7
  6
CONTINUOUS
 10
276.252794
 20
397.644392
 40
5.067078
 50
-115.478803
 51
-30.134142
  0
ARC
  8
1
 62
7
  6
CONTINUOUS
 10
264.957270
 20
392.587563
 40
3.554171
 50
45.000000
 51
52.046575
  0
ARC
  8
1
 62
7
  6
CONTINUOUS
 10
264.957270
 20
392.587563
 40
3.554171
 50
78.668113
 51
135.000000
  0
ARC
  8
1
 62
7
  6
CONTINUOUS
 10
264.957270
 20
392.587563
 40
5.067078
 50
29.933117
 51
43.613027
  0
ARC
  8
1
 62
7
  6
CONTINUOUS
 10
264.957270
 20
392.587563
 40
5.067078
 50
64.521197
 51
149.865858
  0
ARC
  8
1
 62
7
  6
CONTINUOUS
 10
285.661425
 20
397.613765
 40
3.554171
 50
-135.000000
 51
-45.000000
  0
ARC
  8
1
 62
7
  6
CONTINUOUS
 10
278.757074
 20
392.572172
 40
3.554171
 50
45.000000
 51
52.046575
  0
ARC
  8
1
 62
7
  6
CONTINUOUS
 10
278.757074
 20
392.572172
 40
3.554171
 50
78.668113
 51
135.000000
  0
ARC
  8
1
 62
7
  6
CONTINUOUS
 10
278.757074
 20
392.572172
 40
5.067078
 50
29.933117
 51
43.613027
  0
ARC
  8
1
 62
7
  6
CONTINUOUS
 10
278.757074
 20
392.572172
 40
5.067078
 50
64.521197
 51
149.865858
  0
ARC
  8
1
 62
7
  6
CONTINUOUS
 10
241.748834
 20
392.633581
 40
5.067078
 50
29.933117
 51
149.865858
  0
ARC
  8
1
 62
7
  6
CONTINUOUS
 10
241.748834
 20
392.633581
 40
3.554171
 50
45.000000
 51
135.000000
  0
ARC
  8
1
 62
7
  6
CONTINUOUS
 10
244.262013
 20
397.659938
 40
5.067078
 50
-150.066883
 51
-30.134142
  0
ARC
  8
1
 62
7
  6
CONTINUOUS
 10
244.262013
 20
397.659938
 40
3.554171
 50
-135.000000
 51
-45.000000
  0
ARC
  8
1
 62
7
  6
CONTINUOUS
 10
248.653185
 20
397.675175
 40
3.554171
 50
-135.000000
 51
-127.953425
  0
ARC
  8
1
 62
7
  6
CONTINUOUS
 10
248.653185
 20
397.675175
 40
3.554171
 50
-101.331887
 51
-45.000000
  0
ARC
  8
1
 62
7
  6
CONTINUOUS
 10
248.653185
 20
397.675175
 40
5.067078
 50
-150.066883
 51
-136.386973
  0
ARC
  8
1
 62
7
  6
CONTINUOUS
 10
248.653185
 20
397.675175
 40
5.067078
 50
-115.478803
 51
-30.134142
  0
ARC
  8
1
 62
7
  6
CONTINUOUS
 10
237.357662
 20
392.618345
 40
3.554171
 50
45.000000
 51
52.046575
  0
ARC
  8
1
 62
7
  6
CONTINUOUS
 10
237.357662
 20
392.618345
 40
5.067078
 50
29.933117
 51
43.613027
  0
ARC
  8
1
 62
7
  6
CONTINUOUS
 10
258.061817
 20
397.644547
 40
5.067078
 50
-150.066883
 51
-30.134142
  0
ARC
  8
1
 62
7
  6
CONTINUOUS
 10
258.061817
 20
397.644547
 40
3.554171
 50
-135.000000
 51
-45.000000
  0
ARC
  8
1
 62
7
  6
CONTINUOUS
 10
251.157466
 20
392.602954
 40
3.554171
 50
45.000000
 51
52.046575
  0
ARC
  8
1
 62
7
  6
CONTINUOUS
 10
251.157466
 20
392.602954
 40
3.554171
 50
78.668113
 51
135.000000
  0
ARC
  8
1
 62
7
  6
CONTINUOUS
 10
251.157466
 20
392.602954
 40
5.067078
 50
29.933117
 51
43.613027
  0
ARC
  8
1
 62
7
  6
CONTINUOUS
 10
251.157466
 20
392.602954
 40
5.067078
 50
64.521197
 51
149.865858
  0
ARC
  8
1
 62
7
  6
CONTINUOUS
 10
234.853381
 20
397.690566
 40
5.067078
 50
-115.478803
 51
-30.134142
  0
ARC
  8
1
 62
7
  6
CONTINUOUS
 10
237.357662
 20
392.618345
 40
5.067078
 50
64.521197
 51
149.865858
  0
ARC
  8
1
 62
7
  6
CONTINUOUS
 10
241.748834
 20
412.739009
 40
5.067078
 50
29.933117
 51
149.865858
  0
ARC
  8
1
 62
7
  6
CONTINUOUS
 10
241.748834
 20
412.739009
 40
3.554171
 50
45.000000
 51
135.000000
  0
ARC
  8
1
 62
7
  6
CONTINUOUS
 10
244.262013
 20
417.765365
 40
5.067078
 50
-150.066883
 51
-30.134142
  0
ARC
  8
1
 62
7
  6
CONTINUOUS
 10
244.262013
 20
417.765365
 40
3.554171
 50
-135.000000
 51
-45.000000
  0
ARC
  8
1
 62
7
  6
CONTINUOUS
 10
248.653185
 20
417.780602
 40
3.554171
 50
-135.000000
 51
-127.953425
  0
ARC
  8
1
 62
7
  6
CONTINUOUS
 10
248.653185
 20
417.780602
 40
3.554171
 50
-101.331887
 51
-45.000000
  0
ARC
  8
1
 62
7
  6
CONTINUOUS
 10
248.653185
 20
417.780602
 40
5.067078
 50
-150.066883
 51
-136.386973
  0
ARC
  8
1
 62
7
  6
CONTINUOUS
 10
248.653185
 20
417.780602
 40
5.067078
 50
-115.478803
 51
-30.134142
  0
ARC
  8
1
 62
7
  6
CONTINUOUS
 10
237.357662
 20
412.723772
 40
3.554171
 50
45.000000
 51
52.046575
  0
ARC
  8
1
 62
7
  6
CONTINUOUS
 10
237.357662
 20
412.723772
 40
5.067078
 50
29.933117
 51
43.613027
  0
ARC
  8
1
 62
7
  6
CONTINUOUS
 10
255.548638
 20
412.723617
 40
5.067078
 50
29.933117
 51
149.865858
  0
ARC
  8
1
 62
7
  6
CONTINUOUS
 10
255.548638
 20
412.723617
 40
3.554171
 50
45.000000
 51
135.000000
  0
ARC
  8
1
 62
7
  6
CONTINUOUS
 10
258.061817
 20
417.749974
 40
5.067078
 50
-150.066883
 51
-30.134142
  0
ARC
  8
1
 62
7
  6
CONTINUOUS
 10
251.157466
 20
412.708381
 40
3.554171
 50
45.000000
 51
52.046575
  0
ARC
  8
1
 62
7
  6
CONTINUOUS
 10
251.157466
 20
412.708381
 40
3.554171
 50
78.668113
 51
135.000000
  0
ARC
  8
1
 62
7
  6
CONTINUOUS
 10
251.157466
 20
412.708381
 40
5.067078
 50
29.933117
 51
43.613027
  0
ARC
  8
1
 62
7
  6
CONTINUOUS
 10
251.157466
 20
412.708381
 40
5.067078
 50
64.521197
 51
149.865858
  0
ARC
  8
1
 62
7
  6
CONTINUOUS
 10
234.853381
 20
417.795993
 40
5.067078
 50
-115.478803
 51
-30.134142
  0
ARC
  8
1
 62
7
  6
CONTINUOUS
 10
237.357662
 20
412.723772
 40
5.067078
 50
64.521197
 51
149.865858
  0
ARC
  8
1
 62
7
  6
CONTINUOUS
 10
237.357662
 20
412.723772
 40
3.554171
 50
78.668113
 51
135.000000
  0
ARC
  8
1
 62
7
  6
CONTINUOUS
 10
237.357662
 20
392.618345
 40
3.554171
 50
78.668113
 51
135.000000
  0
ARC
  8
1
 62
7
  6
CONTINUOUS
 10
221.053577
 20
417.811384
 40
3.554171
 50
-101.331887
 51
-45.000000
  0
ARC
  8
1
 62
7
  6
CONTINUOUS
 10
227.949030
 20
412.754400
 40
5.067078
 50
29.933117
 51
149.865858
  0
ARC
  8
1
 62
7
  6
CONTINUOUS
 10
227.949030
 20
412.754400
 40
3.554171
 50
45.000000
 51
135.000000
  0
ARC
  8
1
 62
7
  6
CONTINUOUS
 10
230.462209
 20
417.780756
 40
5.067078
 50
-150.066883
 51
-30.134142
  0
ARC
  8
1
 62
7
  6
CONTINUOUS
 10
230.462209
 20
417.780756
 40
3.554171
 50
-135.000000
 51
-45.000000
  0
ARC
  8
1
 62
7
  6
CONTINUOUS
 10
234.853381
 20
417.795993
 40
3.554171
 50
-135.000000
 51
-127.953425
  0
ARC
  8
1
 62
7
  6
CONTINUOUS
 10
234.853381
 20
417.795993
 40
3.554171
 50
-101.331887
 51
-45.000000
  0
ARC
  8
1
 62
7
  6
CONTINUOUS
 10
234.853381
 20
417.795993
 40
5.067078
 50
-150.066883
 51
-136.386973
  0
ARC
  8
1
 62
7
  6
CONTINUOUS
 10
223.557858
 20
412.739163
 40
3.554171
 50
45.000000
 51
52.046575
  0
ARC
  8
1
 62
7
  6
CONTINUOUS
 10
223.557858
 20
412.739163
 40
3.554171
 50
78.668113
 51
135.000000
  0
ARC
  8
1
 62
7
  6
CONTINUOUS
 10
223.557858
 20
412.739163
 40
5.067078
 50
29.933117
 51
43.613027
  0
ARC
  8
1
 62
7
  6
CONTINUOUS
 10
230.356966
 20
422.759219
 40
3.554171
 50
78.668113
 51
135.000000
  0
ARC
  8
1
 62
7
  6
CONTINUOUS
 10
230.356966
 20
422.759219
 40
5.067078
 50
64.521197
 51
149.865858
  0
ARC
  8
1
 62
7
  6
CONTINUOUS
 10
223.461513
 20
427.816203
 40
3.554171
 50
-135.000000
 51
-45.000000
  0
ARC
  8
1
 62
7
  6
CONTINUOUS
 10
227.852686
 20
427.831440
 40
3.554171
 50
-135.000000
 51
-127.953425
  0
ARC
  8
1
 62
7
  6
CONTINUOUS
 10
227.852686
 20
427.831440
 40
3.554171
 50
-101.331887
 51
-45.000000
  0
ARC
  8
1
 62
7
  6
CONTINUOUS
 10
227.852686
 20
427.831440
 40
5.067078
 50
-150.066883
 51
-136.386973
  0
ARC
  8
1
 62
7
  6
CONTINUOUS
 10
227.852686
 20
427.831440
 40
5.067078
 50
-115.478803
 51
-30.134142
  0
ARC
  8
1
 62
7
  6
CONTINUOUS
 10
216.557162
 20
422.774610
 40
5.067078
 50
29.933117
 51
43.613027
  0
ARC
  8
1
 62
7
  6
CONTINUOUS
 10
230.356966
 20
422.759219
 40
5.067078
 50
29.933117
 51
43.613027
  0
ARC
  8
1
 62
7
  6
CONTINUOUS
 10
237.261317
 20
427.800812
 40
3.554171
 50
-135.000000
 51
-106.729822
  0
ARC
  8
1
 62
7
  6
CONTINUOUS
 10
234.748139
 20
422.774456
 40
3.554171
 50
65.212895
 51
135.000000
  0
ARC
  8
1
 62
7
  6
CONTINUOUS
 10
234.748139
 20
422.774456
 40
5.067078
 50
71.145195
 51
149.865858
  0
ARC
  8
1
 62
7
  6
CONTINUOUS
 10
221.053577
 20
397.705957
 40
3.554171
 50
-101.331887
 51
-45.000000
  0
ARC
  8
1
 62
7
  6
CONTINUOUS
 10
227.949030
 20
392.648972
 40
5.067078
 50
29.933117
 51
149.865858
  0
ARC
  8
1
 62
7
  6
CONTINUOUS
 10
227.949030
 20
392.648972
 40
3.554171
 50
45.000000
 51
135.000000
  0
ARC
  8
1
 62
7
  6
CONTINUOUS
 10
230.462209
 20
397.675329
 40
5.067078
 50
-150.066883
 51
-30.134142
  0
ARC
  8
1
 62
7
  6
CONTINUOUS
 10
230.462209
 20
397.675329
 40
3.554171
 50
-135.000000
 51
-45.000000
  0
ARC
  8
1
 62
7
  6
CONTINUOUS
 10
234.853381
 20
397.690566
 40
3.554171
 50
-101.331887
 51
-45.000000
  0
ARC
  8
1
 62
7
  6
CONTINUOUS
 10
234.853381
 20
397.690566
 40
5.067078
 50
-150.066883
 51
-136.386973
  0
ARC
  8
1
 62
7
  6
CONTINUOUS
 10
223.557858
 20
392.633736
 40
3.554171
 50
45.000000
 51
52.046575
  0
ARC
  8
1
 62
7
  6
CONTINUOUS
 10
223.557858
 20
392.633736
 40
3.554171
 50
78.668113
 51
135.000000
  0
ARC
  8
1
 62
7
  6
CONTINUOUS
 10
223.557858
 20
392.633736
 40
5.067078
 50
29.933117
 51
43.613027
  0
ARC
  8
1
 62
7
  6
CONTINUOUS
 10
230.356966
 20
402.653792
 40
3.554171
 50
78.668113
 51
135.000000
  0
ARC
  8
1
 62
7
  6
CONTINUOUS
 10
230.356966
 20
402.653792
 40
5.067078
 50
64.521197
 51
149.865858
  0
ARC
  8
1
 62
7
  6
CONTINUOUS
 10
223.461513
 20
407.710776
 40
3.554171
 50
-135.000000
 51
-45.000000
  0
ARC
  8
1
 62
7
  6
CONTINUOUS
 10
227.852686
 20
407.726013
 40
3.554171
 50
-135.000000
 51
-127.953425
  0
ARC
  8
1
 62
7
  6
CONTINUOUS
 10
227.852686
 20
407.726013
 40
3.554171
 50
-101.331887
 51
-45.000000
  0
ARC
  8
1
 62
7
  6
CONTINUOUS
 10
227.852686
 20
407.726013
 40
5.067078
 50
-150.066883
 51
-136.386973
  0
ARC
  8
1
 62
7
  6
CONTINUOUS
 10
227.852686
 20
407.726013
 40
5.067078
 50
-115.478803
 51
-30.134142
  0
ARC
  8
1
 62
7
  6
CONTINUOUS
 10
216.557162
 20
402.669183
 40
5.067078
 50
29.933117
 51
43.613027
  0
ARC
  8
1
 62
7
  6
CONTINUOUS
 10
230.356966
 20
402.653792
 40
5.067078
 50
29.933117
 51
43.613027
  0
ARC
  8
1
 62
7
  6
CONTINUOUS
 10
237.261317
 20
407.695385
 40
3.554171
 50
-135.000000
 51
-106.729822
  0
ARC
  8
1
 62
7
  6
CONTINUOUS
 10
237.261317
 20
407.695385
 40
5.067078
 50
-150.066883
 51
-101.648748
  0
ARC
  8
1
 62
7
  6
CONTINUOUS
 10
234.748139
 20
402.669028
 40
3.554171
 50
65.212895
 51
135.000000
  0
ARC
  8
1
 62
7
  6
CONTINUOUS
 10
234.748139
 20
402.669028
 40
5.067078
 50
71.145195
 51
149.865858
  0
ARC
  8
1
 62
7
  6
CONTINUOUS
 10
223.461513
 20
407.710776
 40
5.067078
 50
-150.066883
 51
-30.134142
  0
ARC
  8
1
 62
7
  6
CONTINUOUS
 10
220.948334
 20
402.684419
 40
3.554171
 50
45.000000
 51
135.000000
  0
ARC
  8
1
 62
7
  6
CONTINUOUS
 10
220.948334
 20
402.684419
 40
5.067078
 50
29.933117
 51
149.865858
  0
ARC
  8
1
 62
7
  6
CONTINUOUS
 10
223.557858
 20
392.633736
 40
5.067078
 50
64.521197
 51
149.865858
  0
ARC
  8
1
 62
7
  6
CONTINUOUS
 10
221.053577
 20
397.705957
 40
5.067078
 50
-115.478803
 51
-30.134142
  0
ARC
  8
1
 62
7
  6
CONTINUOUS
 10
216.662405
 20
397.690720
 40
5.067078
 50
-150.066883
 51
-30.134142
  0
ARC
  8
1
 62
7
  6
CONTINUOUS
 10
223.461513
 20
427.816203
 40
5.067078
 50
-150.066883
 51
-30.134142
  0
ARC
  8
1
 62
7
  6
CONTINUOUS
 10
220.948334
 20
422.789847
 40
3.554171
 50
45.000000
 51
135.000000
  0
ARC
  8
1
 62
7
  6
CONTINUOUS
 10
223.557858
 20
412.739163
 40
5.067078
 50
64.521197
 51
149.865858
  0
ARC
  8
1
 62
7
  6
CONTINUOUS
 10
221.053577
 20
417.811384
 40
5.067078
 50
-115.478803
 51
-30.134142
  0
ARC
  8
1
 62
7
  6
CONTINUOUS
 10
216.662405
 20
417.796148
 40
5.067078
 50
-150.066883
 51
-30.134142
  0
ARC
  8
1
 62
7
  6
CONTINUOUS
 10
216.662405
 20
417.796148
 40
3.554171
 50
-135.000000
 51
-45.000000
  0
ARC
  8
1
 62
7
  6
CONTINUOUS
 10
216.557162
 20
422.774610
 40
5.067078
 50
64.521197
 51
149.865858
  0
ARC
  8
1
 62
7
  6
CONTINUOUS
 10
216.662405
 20
397.690720
 40
3.554171
 50
-135.000000
 51
-45.000000
  0
ARC
  8
1
 62
7
  6
CONTINUOUS
 10
216.557162
 20
402.669183
 40
5.067078
 50
64.521197
 51
149.865858
  0
LINE
  8
1
 62
7
  6
CONTINUOUS
 10
306.305630
 20
397.608210
 11
306.305630
 21
413.285422
  0
LINE
  8
1
 62
7
  6
CONTINUOUS
 10
306.305630
 20
378.258201
 11
306.305630
 21
393.179995
  0
LINE
  8
1
 62
7
  6
CONTINUOUS
 10
306.305630
 20
417.713638
 11
306.305630
 21
441.590297
  0
LINE
  8
1
 62
7
  6
CONTINUOUS
 10
326.411058
 20
412.647776
 11
326.411058
 21
378.258201
  0
LINE
  8
1
 62
7
  6
CONTINUOUS
 10
326.411058
 20
442.595568
 11
326.411058
 21
417.358670
  0
LINE
  8
1
 62
7
  6
CONTINUOUS
 10
333.447957
 20
417.657550
 11
333.447957
 21
442.595568
  0
LINE
  8
1
 62
7
  6
CONTINUOUS
 10
333.447957
 20
378.258201
 11
333.447957
 21
413.030845
  0
LINE
  8
1
 62
7
  6
CONTINUOUS
 10
353.553384
 20
440.453081
 11
353.553384
 21
378.258201
  0
LINE
  8
1
 62
7
  6
CONTINUOUS
 10
311.972470
 20
442.595568
 11
326.411058
 21
442.595568
  0
ARC
  8
1
 62
7
  6
CONTINUOUS
 10
306.356682
 20
392.541390
 40
3.554171
 50
45.000000
 51
52.046575
  0
ARC
  8
1
 62
7
  6
CONTINUOUS
 10
333.956290
 20
412.616035
 40
3.554171
 50
78.668113
 51
135.000000
  0
ARC
  8
1
 62
7
  6
CONTINUOUS
 10
331.452010
 20
417.688255
 40
5.067078
 50
-150.066883
 51
-136.386973
  0
ARC
  8
1
 62
7
  6
CONTINUOUS
 10
306.356682
 20
412.646817
 40
3.554171
 50
45.000000
 51
52.046575
  0
LINE
  8
1
 62
7
  6
CONTINUOUS
 10
333.447957
 20
442.595568
 11
353.553384
 21
442.595568
  0
ARC
  8
1
 62
7
  6
CONTINUOUS
 10
310.747855
 20
392.556626
 40
5.067078
 50
25.021848
 51
149.865858
  0
ARC
  8
1
 62
7
  6
CONTINUOUS
 10
310.747855
 20
392.556626
 40
3.554171
 50
25.673705
 51
135.000000
  0
ARC
  8
1
 62
7
  6
CONTINUOUS
 10
296.948051
 20
392.572017
 40
3.554171
 50
25.673705
 51
135.000000
  0
ARC
  8
1
 62
7
  6
CONTINUOUS
 10
296.948051
 20
392.572017
 40
5.067078
 50
25.021848
 51
149.865858
  0
ARC
  8
1
 62
7
  6
CONTINUOUS
 10
283.148247
 20
392.587408
 40
5.067078
 50
25.021848
 51
149.865858
  0
ARC
  8
1
 62
7
  6
CONTINUOUS
 10
283.148247
 20
392.587408
 40
3.554171
 50
25.673705
 51
135.000000
  0
ARC
  8
1
 62
7
  6
CONTINUOUS
 10
258.061817
 20
417.749974
 40
3.554171
 50
-135.000000
 51
-45.000000
  0
ARC
  8
1
 62
7
  6
CONTINUOUS
 10
237.261317
 20
427.800812
 40
5.067078
 50
-154.978152
 51
-101.648748
  0
LINE
  8
1
 62
7
  6
CONTINUOUS
 10
214.151942
 20
395.174066
 11
214.149240
 21
395.177757
  0
LINE
  8
1
 62
7
  6
CONTINUOUS
 10
214.149240
 20
395.177757
 11
214.141209
 21
395.188730
  0
LINE
  8
1
 62
7
  6
CONTINUOUS
 10
214.141209
 20
395.188730
 11
214.128082
 21
395.206691
  0
LINE
  8
1
 62
7
  6
CONTINUOUS
 10
214.128082
 20
395.206691
 11
214.110261
 21
395.231168
  0
LINE
  8
1
 62
7
  6
CONTINUOUS
 10
214.110261
 20
395.231168
 11
214.088336
 21
395.261538
  0
LINE
  8
1
 62
7
  6
CONTINUOUS
 10
214.088336
 20
395.261538
 11
214.063093
 21
395.297049
  0
LINE
  8
1
 62
7
  6
CONTINUOUS
 10
214.063093
 20
395.297049
 11
214.035494
 21
395.336846
  0
LINE
  8
1
 62
7
  6
CONTINUOUS
 10
214.035494
 20
395.336846
 11
214.006638
 21
395.379986
  0
LINE
  8
1
 62
7
  6
CONTINUOUS
 10
214.006638
 20
395.379986
 11
213.977691
 21
395.425451
  0
LINE
  8
1
 62
7
  6
CONTINUOUS
 10
213.977691
 20
395.425451
 11
213.949792
 21
395.472144
  0
LINE
  8
1
 62
7
  6
CONTINUOUS
 10
213.949792
 20
395.472144
 11
213.923956
 21
395.518898
  0
LINE
  8
1
 62
7
  6
CONTINUOUS
 10
213.923956
 20
395.518898
 11
213.900988
 21
395.564477
  0
LINE
  8
1
 62
7
  6
CONTINUOUS
 10
213.900988
 20
395.564477
 11
213.881413
 21
395.607598
  0
LINE
  8
1
 62
7
  6
CONTINUOUS
 10
213.881413
 20
395.607598
 11
213.865461
 21
395.646957
  0
LINE
  8
1
 62
7
  6
CONTINUOUS
 10
213.865461
 20
395.646957
 11
213.853088
 21
395.681284
  0
LINE
  8
1
 62
7
  6
CONTINUOUS
 10
213.853088
 20
395.681284
 11
213.844044
 21
395.709397
  0
LINE
  8
1
 62
7
  6
CONTINUOUS
 10
213.844044
 20
395.709397
 11
213.837968
 21
395.730279
  0
LINE
  8
1
 62
7
  6
CONTINUOUS
 10
213.837968
 20
395.730279
 11
213.834499
 21
395.743141
  0
LINE
  8
1
 62
7
  6
CONTINUOUS
 10
213.834499
 20
395.743141
 11
213.833375
 21
395.747486
  0
LINE
  8
1
 62
7
  6
CONTINUOUS
 10
213.833375
 20
395.747486
 11
213.832272
 21
395.751839
  0
LINE
  8
1
 62
7
  6
CONTINUOUS
 10
213.832272
 20
395.751839
 11
213.829121
 21
395.764834
  0
LINE
  8
1
 62
7
  6
CONTINUOUS
 10
213.829121
 20
395.764834
 11
213.824364
 21
395.786262
  0
LINE
  8
1
 62
7
  6
CONTINUOUS
 10
213.824364
 20
395.786262
 11
213.818658
 21
395.815758
  0
LINE
  8
1
 62
7
  6
CONTINUOUS
 10
213.818658
 20
395.815758
 11
213.812767
 21
395.852769
  0
LINE
  8
1
 62
7
  6
CONTINUOUS
 10
213.812767
 20
395.852769
 11
213.807438
 21
395.896529
  0
LINE
  8
1
 62
7
  6
CONTINUOUS
 10
213.807438
 20
395.896529
 11
213.803296
 21
395.946043
  0
LINE
  8
1
 62
7
  6
CONTINUOUS
 10
213.803296
 20
395.946043
 11
213.800758
 21
396.000085
  0
LINE
  8
1
 62
7
  6
CONTINUOUS
 10
213.800758
 20
396.000085
 11
213.799994
 21
396.057224
  0
LINE
  8
1
 62
7
  6
CONTINUOUS
 10
213.799994
 20
396.057224
 11
213.800925
 21
396.115860
  0
LINE
  8
1
 62
7
  6
CONTINUOUS
 10
213.800925
 20
396.115860
 11
213.803273
 21
396.174288
  0
LINE
  8
1
 62
7
  6
CONTINUOUS
 10
213.803273
 20
396.174288
 11
213.806622
 21
396.230770
  0
LINE
  8
1
 62
7
  6
CONTINUOUS
 10
213.806622
 20
396.230770
 11
213.810504
 21
396.283607
  0
LINE
  8
1
 62
7
  6
CONTINUOUS
 10
213.810504
 20
396.283607
 11
213.814467
 21
396.331216
  0
LINE
  8
1
 62
7
  6
CONTINUOUS
 10
213.814467
 20
396.331216
 11
213.818127
 21
396.372184
  0
LINE
  8
1
 62
7
  6
CONTINUOUS
 10
213.818127
 20
396.372184
 11
213.821198
 21
396.405316
  0
LINE
  8
1
 62
7
  6
CONTINUOUS
 10
213.821198
 20
396.405316
 11
213.823493
 21
396.429665
  0
LINE
  8
1
 62
7
  6
CONTINUOUS
 10
213.823493
 20
396.429665
 11
213.824903
 21
396.444549
  0
LINE
  8
1
 62
7
  6
CONTINUOUS
 10
213.824903
 20
396.444549
 11
213.825378
 21
396.449556
  0
LINE
  8
1
 62
7
  6
CONTINUOUS
 10
212.271232
 20
395.162306
 11
212.267131
 21
395.173845
  0
LINE
  8
1
 62
7
  6
CONTINUOUS
 10
212.267131
 20
395.173845
 11
212.254944
 21
395.208148
  0
LINE
  8
1
 62
7
  6
CONTINUOUS
 10
212.254944
 20
395.208148
 11
212.235029
 21
395.264272
  0
LINE
  8
1
 62
7
  6
CONTINUOUS
 10
212.235029
 20
395.264272
 11
212.208017
 21
395.340667
  0
LINE
  8
1
 62
7
  6
CONTINUOUS
 10
212.208017
 20
395.340667
 11
212.174856
 21
395.435200
  0
LINE
  8
1
 62
7
  6
CONTINUOUS
 10
212.174856
 20
395.435200
 11
212.136823
 21
395.545208
  0
LINE
  8
1
 62
7
  6
CONTINUOUS
 10
212.136823
 20
395.545208
 11
212.095504
 21
395.667564
  0
LINE
  8
1
 62
7
  6
CONTINUOUS
 10
212.095504
 20
395.667564
 11
212.052720
 21
395.798771
  0
LINE
  8
1
 62
7
  6
CONTINUOUS
 10
212.052720
 20
395.798771
 11
212.010393
 21
395.935077
  0
LINE
  8
1
 62
7
  6
CONTINUOUS
 10
212.010393
 20
395.935077
 11
211.970378
 21
396.072603
  0
LINE
  8
1
 62
7
  6
CONTINUOUS
 10
211.970378
 20
396.072603
 11
211.934277
 21
396.207482
  0
LINE
  8
1
 62
7
  6
CONTINUOUS
 10
211.934277
 20
396.207482
 11
211.903269
 21
396.335990
  0
LINE
  8
1
 62
7
  6
CONTINUOUS
 10
211.903269
 20
396.335990
 11
211.878003
 21
396.454665
  0
LINE
  8
1
 62
7
  6
CONTINUOUS
 10
211.878003
 20
396.454665
 11
211.858557
 21
396.560412
  0
LINE
  8
1
 62
7
  6
CONTINUOUS
 10
211.858557
 20
396.560412
 11
211.844505
 21
396.650565
  0
LINE
  8
1
 62
7
  6
CONTINUOUS
 10
211.844505
 20
396.650565
 11
211.835053
 21
396.722935
  0
LINE
  8
1
 62
7
  6
CONTINUOUS
 10
211.835053
 20
396.722935
 11
211.829244
 21
396.775825
  0
LINE
  8
1
 62
7
  6
CONTINUOUS
 10
211.829244
 20
396.775825
 11
211.826183
 21
396.808036
  0
LINE
  8
1
 62
7
  6
CONTINUOUS
 10
211.826183
 20
396.808036
 11
211.825239
 21
396.818852
  0
LINE
  8
1
 62
7
  6
CONTINUOUS
 10
211.825239
 20
396.818852
 11
211.824337
 21
396.829658
  0
LINE
  8
1
 62
7
  6
CONTINUOUS
 10
211.824337
 20
396.829658
 11
211.821911
 21
396.861723
  0
LINE
  8
1
 62
7
  6
CONTINUOUS
 10
211.821911
 20
396.861723
 11
211.818741
 21
396.914009
  0
LINE
  8
1
 62
7
  6
CONTINUOUS
 10
211.818741
 20
396.914009
 11
211.815967
 21
396.984848
  0
LINE
  8
1
 62
7
  6
CONTINUOUS
 10
211.815967
 20
396.984848
 11
211.814880
 21
397.072029
  0
LINE
  8
1
 62
7
  6
CONTINUOUS
 10
211.814880
 20
397.072029
 11
211.816686
 21
397.172904
  0
LINE
  8
1
 62
7
  6
CONTINUOUS
 10
211.816686
 20
397.172904
 11
211.822294
 21
397.284502
  0
LINE
  8
1
 62
7
  6
CONTINUOUS
 10
211.822294
 20
397.284502
 11
211.832160
 21
397.403640
  0
LINE
  8
1
 62
7
  6
CONTINUOUS
 10
211.832160
 20
397.403640
 11
211.846214
 21
397.527021
  0
LINE
  8
1
 62
7
  6
CONTINUOUS
 10
211.846214
 20
397.527021
 11
211.863876
 21
397.651327
  0
LINE
  8
1
 62
7
  6
CONTINUOUS
 10
211.863876
 20
397.651327
 11
211.884155
 21
397.773281
  0
LINE
  8
1
 62
7
  6
CONTINUOUS
 10
211.884155
 20
397.773281
 11
211.905798
 21
397.889719
  0
LINE
  8
1
 62
7
  6
CONTINUOUS
 10
211.905798
 20
397.889719
 11
211.927458
 21
397.997638
  0
LINE
  8
1
 62
7
  6
CONTINUOUS
 10
211.927458
 20
397.997638
 11
211.947852
 21
398.094252
  0
LINE
  8
1
 62
7
  6
CONTINUOUS
 10
211.947852
 20
398.094252
 11
211.965874
 21
398.177052
  0
LINE
  8
1
 62
7
  6
CONTINUOUS
 10
211.965874
 20
398.177052
 11
211.980659
 21
398.243866
  0
LINE
  8
1
 62
7
  6
CONTINUOUS
 10
211.980659
 20
398.243866
 11
211.991596
 21
398.292918
  0
LINE
  8
1
 62
7
  6
CONTINUOUS
 10
211.991596
 20
398.292918
 11
211.998296
 21
398.322891
  0
LINE
  8
1
 62
7
  6
CONTINUOUS
 10
211.998296
 20
398.322891
 11
212.000551
 21
398.332973
  0
LINE
  8
1
 62
7
  6
CONTINUOUS
 10
214.429992
 20
398.057520
 11
214.437745
 21
398.080414
  0
LINE
  8
1
 62
7
  6
CONTINUOUS
 10
214.437745
 20
398.080414
 11
214.460789
 21
398.148464
  0
LINE
  8
1
 62
7
  6
CONTINUOUS
 10
214.460789
 20
398.148464
 11
214.498489
 21
398.259764
  0
LINE
  8
1
 62
7
  6
CONTINUOUS
 10
214.498489
 20
398.259764
 11
214.549788
 21
398.411092
  0
LINE
  8
1
 62
7
  6
CONTINUOUS
 10
214.549788
 20
398.411092
 11
214.613223
 21
398.597894
  0
LINE
  8
1
 62
7
  6
CONTINUOUS
 10
214.613223
 20
398.597894
 11
214.686947
 21
398.814311
  0
LINE
  8
1
 62
7
  6
CONTINUOUS
 10
214.686947
 20
398.814311
 11
214.768778
 21
399.053315
  0
LINE
  8
1
 62
7
  6
CONTINUOUS
 10
214.768778
 20
399.053315
 11
214.856271
 21
399.306972
  0
LINE
  8
1
 62
7
  6
CONTINUOUS
 10
214.856271
 20
399.306972
 11
214.946803
 21
399.566813
  0
LINE
  8
1
 62
7
  6
CONTINUOUS
 10
214.946803
 20
399.566813
 11
215.037688
 21
399.824319
  0
LINE
  8
1
 62
7
  6
CONTINUOUS
 10
215.037688
 20
399.824319
 11
215.126288
 21
400.071422
  0
LINE
  8
1
 62
7
  6
CONTINUOUS
 10
215.126288
 20
400.071422
 11
215.210127
 21
400.300983
  0
LINE
  8
1
 62
7
  6
CONTINUOUS
 10
215.210127
 20
400.300983
 11
215.286979
 21
400.507147
  0
LINE
  8
1
 62
7
  6
CONTINUOUS
 10
215.286979
 20
400.507147
 11
215.354937
 21
400.685535
  0
LINE
  8
1
 62
7
  6
CONTINUOUS
 10
215.354937
 20
400.685535
 11
215.412443
 21
400.833241
  0
LINE
  8
1
 62
7
  6
CONTINUOUS
 10
215.412443
 20
400.833241
 11
215.458295
 21
400.948645
  0
LINE
  8
1
 62
7
  6
CONTINUOUS
 10
215.458295
 20
400.948645
 11
215.491619
 21
401.031083
  0
LINE
  8
1
 62
7
  6
CONTINUOUS
 10
215.491619
 20
401.031083
 11
215.511832
 21
401.080462
  0
LINE
  8
1
 62
7
  6
CONTINUOUS
 10
215.511832
 20
401.080462
 11
215.518605
 21
401.096898
  0
LINE
  8
1
 62
7
  6
CONTINUOUS
 10
215.518605
 20
401.096898
 11
215.525365
 21
401.113247
  0
LINE
  8
1
 62
7
  6
CONTINUOUS
 10
215.525365
 20
401.113247
 11
215.545385
 21
401.161330
  0
LINE
  8
1
 62
7
  6
CONTINUOUS
 10
215.545385
 20
401.161330
 11
215.577927
 21
401.238398
  0
LINE
  8
1
 62
7
  6
CONTINUOUS
 10
215.577927
 20
401.238398
 11
215.621886
 21
401.340275
  0
LINE
  8
1
 62
7
  6
CONTINUOUS
 10
215.621886
 20
401.340275
 11
215.675938
 21
401.461890
  0
LINE
  8
1
 62
7
  6
CONTINUOUS
 10
215.675938
 20
401.461890
 11
215.738692
 21
401.597861
  0
LINE
  8
1
 62
7
  6
CONTINUOUS
 10
215.738692
 20
401.597861
 11
215.808803
 21
401.743026
  0
LINE
  8
1
 62
7
  6
CONTINUOUS
 10
215.808803
 20
401.743026
 11
215.885003
 21
401.892818
  0
LINE
  8
1
 62
7
  6
CONTINUOUS
 10
215.885003
 20
401.892818
 11
215.966064
 21
402.043441
  0
LINE
  8
1
 62
7
  6
CONTINUOUS
 10
215.966064
 20
402.043441
 11
216.050680
 21
402.191832
  0
LINE
  8
1
 62
7
  6
CONTINUOUS
 10
216.050680
 20
402.191832
 11
216.137316
 21
402.335455
  0
LINE
  8
1
 62
7
  6
CONTINUOUS
 10
216.137316
 20
402.335455
 11
216.224061
 21
402.472006
  0
LINE
  8
1
 62
7
  6
CONTINUOUS
 10
216.224061
 20
402.472006
 11
216.308543
 21
402.599125
  0
LINE
  8
1
 62
7
  6
CONTINUOUS
 10
216.308543
 20
402.599125
 11
216.387941
 21
402.714199
  0
LINE
  8
1
 62
7
  6
CONTINUOUS
 10
216.387941
 20
402.714199
 11
216.459102
 21
402.814331
  0
LINE
  8
1
 62
7
  6
CONTINUOUS
 10
216.459102
 20
402.814331
 11
216.518782
 21
402.896466
  0
LINE
  8
1
 62
7
  6
CONTINUOUS
 10
216.518782
 20
402.896466
 11
216.563955
 21
402.957674
  0
LINE
  8
1
 62
7
  6
CONTINUOUS
 10
216.563955
 20
402.957674
 11
216.592146
 21
402.995498
  0
LINE
  8
1
 62
7
  6
CONTINUOUS
 10
216.592146
 20
402.995498
 11
216.601732
 21
403.008298
  0
LINE
  8
1
 62
7
  6
CONTINUOUS
 10
216.601732
 20
403.008298
 11
216.611369
 21
403.021138
  0
LINE
  8
1
 62
7
  6
CONTINUOUS
 10
216.611369
 20
403.021138
 11
216.640324
 21
403.059541
  0
LINE
  8
1
 62
7
  6
CONTINUOUS
 10
216.640324
 20
403.059541
 11
216.688669
 21
403.123117
  0
LINE
  8
1
 62
7
  6
CONTINUOUS
 10
216.688669
 20
403.123117
 11
216.756355
 21
403.211105
  0
LINE
  8
1
 62
7
  6
CONTINUOUS
 10
216.756355
 20
403.211105
 11
216.843001
 21
403.322224
  0
LINE
  8
1
 62
7
  6
CONTINUOUS
 10
216.843001
 20
403.322224
 11
216.947660
 21
403.454526
  0
LINE
  8
1
 62
7
  6
CONTINUOUS
 10
216.947660
 20
403.454526
 11
217.068635
 21
403.605287
  0
LINE
  8
1
 62
7
  6
CONTINUOUS
 10
217.068635
 20
403.605287
 11
217.203359
 21
403.770955
  0
LINE
  8
1
 62
7
  6
CONTINUOUS
 10
217.203359
 20
403.770955
 11
217.348396
 21
403.947195
  0
LINE
  8
1
 62
7
  6
CONTINUOUS
 10
217.348396
 20
403.947195
 11
217.499555
 21
404.129018
  0
LINE
  8
1
 62
7
  6
CONTINUOUS
 10
217.499555
 20
404.129018
 11
217.652098
 21
404.310995
  0
LINE
  8
1
 62
7
  6
CONTINUOUS
 10
217.652098
 20
404.310995
 11
217.801020
 21
404.487518
  0
LINE
  8
1
 62
7
  6
CONTINUOUS
 10
217.801020
 20
404.487518
 11
217.941347
 21
404.653074
  0
LINE
  8
1
 62
7
  6
CONTINUOUS
 10
217.941347
 20
404.653074
 11
218.068415
 21
404.802508
  0
LINE
  8
1
 62
7
  6
CONTINUOUS
 10
218.068415
 20
404.802508
 11
218.178098
 21
404.931238
  0
LINE
  8
1
 62
7
  6
CONTINUOUS
 10
218.178098
 20
404.931238
 11
218.266953
 21
405.035410
  0
LINE
  8
1
 62
7
  6
CONTINUOUS
 10
218.266953
 20
405.035410
 11
218.332305
 21
405.111989
  0
LINE
  8
1
 62
7
  6
CONTINUOUS
 10
218.332305
 20
405.111989
 11
218.372262
 21
405.158803
  0
LINE
  8
1
 62
7
  6
CONTINUOUS
 10
218.372262
 20
405.158803
 11
218.385705
 21
405.174551
  0
LINE
  8
1
 62
7
  6
CONTINUOUS
 10
216.538018
 20
405.301978
 11
216.524984
 21
405.287619
  0
LINE
  8
1
 62
7
  6
CONTINUOUS
 10
216.524984
 20
405.287619
 11
216.486238
 21
405.244931
  0
LINE
  8
1
 62
7
  6
CONTINUOUS
 10
216.486238
 20
405.244931
 11
216.422858
 21
405.175059
  0
LINE
  8
1
 62
7
  6
CONTINUOUS
 10
216.422858
 20
405.175059
 11
216.336646
 21
405.079837
  0
LINE
  8
1
 62
7
  6
CONTINUOUS
 10
216.336646
 20
405.079837
 11
216.230127
 21
404.961694
  0
LINE
  8
1
 62
7
  6
CONTINUOUS
 10
216.230127
 20
404.961694
 11
216.106512
 21
404.823555
  0
LINE
  8
1
 62
7
  6
CONTINUOUS
 10
216.106512
 20
404.823555
 11
215.969623
 21
404.668747
  0
LINE
  8
1
 62
7
  6
CONTINUOUS
 10
215.969623
 20
404.668747
 11
215.823762
 21
404.500940
  0
LINE
  8
1
 62
7
  6
CONTINUOUS
 10
215.823762
 20
404.500940
 11
215.673529
 21
404.324106
  0
LINE
  8
1
 62
7
  6
CONTINUOUS
 10
215.673529
 20
404.324106
 11
215.523596
 21
404.142506
  0
LINE
  8
1
 62
7
  6
CONTINUOUS
 10
215.523596
 20
404.142506
 11
215.378471
 21
403.960687
  0
LINE
  8
1
 62
7
  6
CONTINUOUS
 10
215.378471
 20
403.960687
 11
215.242274
 21
403.783452
  0
LINE
  8
1
 62
7
  6
CONTINUOUS
 10
215.242274
 20
403.783452
 11
215.118557
 21
403.615795
  0
LINE
  8
1
 62
7
  6
CONTINUOUS
 10
215.118557
 20
403.615795
 11
215.010194
 21
403.462775
  0
LINE
  8
1
 62
7
  6
CONTINUOUS
 10
215.010194
 20
403.462775
 11
214.919355
 21
403.329335
  0
LINE
  8
1
 62
7
  6
CONTINUOUS
 10
214.919355
 20
403.329335
 11
214.847552
 21
403.220056
  0
LINE
  8
1
 62
7
  6
CONTINUOUS
 10
214.847552
 20
403.220056
 11
214.795748
 21
403.138890
  0
LINE
  8
1
 62
7
  6
CONTINUOUS
 10
214.795748
 20
403.138890
 11
214.764490
 21
403.088897
  0
LINE
  8
1
 62
7
  6
CONTINUOUS
 10
214.764490
 20
403.088897
 11
214.754045
 21
403.072012
  0
LINE
  8
1
 62
7
  6
CONTINUOUS
 10
214.754045
 20
403.072012
 11
214.743636
 21
403.055092
  0
LINE
  8
1
 62
7
  6
CONTINUOUS
 10
214.743636
 20
403.055092
 11
214.712901
 21
403.004597
  0
LINE
  8
1
 62
7
  6
CONTINUOUS
 10
214.712901
 20
403.004597
 11
214.663288
 21
402.921394
  0
LINE
  8
1
 62
7
  6
CONTINUOUS
 10
214.663288
 20
402.921394
 11
214.597087
 21
402.807120
  0
LINE
  8
1
 62
7
  6
CONTINUOUS
 10
214.597087
 20
402.807120
 11
214.517272
 21
402.664422
  0
LINE
  8
1
 62
7
  6
CONTINUOUS
 10
214.517272
 20
402.664422
 11
214.427292
 21
402.497136
  0
LINE
  8
1
 62
7
  6
CONTINUOUS
 10
214.427292
 20
402.497136
 11
214.330837
 21
402.310366
  0
LINE
  8
1
 62
7
  6
CONTINUOUS
 10
214.330837
 20
402.310366
 11
214.231607
 21
402.110370
  0
LINE
  8
1
 62
7
  6
CONTINUOUS
 10
214.231607
 20
402.110370
 11
214.133090
 21
401.904244
  0
LINE
  8
1
 62
7
  6
CONTINUOUS
 10
214.133090
 20
401.904244
 11
214.038387
 21
401.699437
  0
LINE
  8
1
 62
7
  6
CONTINUOUS
 10
214.038387
 20
401.699437
 11
213.950082
 21
401.503157
  0
LINE
  8
1
 62
7
  6
CONTINUOUS
 10
213.950082
 20
401.503157
 11
213.870169
 21
401.321783
  0
LINE
  8
1
 62
7
  6
CONTINUOUS
 10
213.870169
 20
401.321783
 11
213.800043
 21
401.160395
  0
LINE
  8
1
 62
7
  6
CONTINUOUS
 10
213.800043
 20
401.160395
 11
213.740551
 21
401.022500
  0
LINE
  8
1
 62
7
  6
CONTINUOUS
 10
213.740551
 20
401.022500
 11
213.692079
 21
400.910017
  0
LINE
  8
1
 62
7
  6
CONTINUOUS
 10
213.692079
 20
400.910017
 11
213.654679
 21
400.823509
  0
LINE
  8
1
 62
7
  6
CONTINUOUS
 10
213.654679
 20
400.823509
 11
213.628204
 21
400.762612
  0
LINE
  8
1
 62
7
  6
CONTINUOUS
 10
213.628204
 20
400.762612
 11
213.612438
 21
400.726548
  0
LINE
  8
1
 62
7
  6
CONTINUOUS
 10
213.612438
 20
400.726548
 11
213.607205
 21
400.714619
  0
LINE
  8
1
 62
7
  6
CONTINUOUS
 10
213.607205
 20
400.714619
 11
213.602008
 21
400.702792
  0
LINE
  8
1
 62
7
  6
CONTINUOUS
 10
213.602008
 20
400.702792
 11
213.586765
 21
400.668237
  0
LINE
  8
1
 62
7
  6
CONTINUOUS
 10
213.586765
 20
400.668237
 11
213.562478
 21
400.613600
  0
LINE
  8
1
 62
7
  6
CONTINUOUS
 10
213.562478
 20
400.613600
 11
213.530673
 21
400.542880
  0
LINE
  8
1
 62
7
  6
CONTINUOUS
 10
213.530673
 20
400.542880
 11
213.493214
 21
400.460900
  0
LINE
  8
1
 62
7
  6
CONTINUOUS
 10
213.493214
 20
400.460900
 11
213.452087
 21
400.372698
  0
LINE
  8
1
 62
7
  6
CONTINUOUS
 10
213.452087
 20
400.372698
 11
213.409199
 21
400.282963
  0
LINE
  8
1
 62
7
  6
CONTINUOUS
 10
213.409199
 20
400.282963
 11
213.366218
 21
400.195592
  0
LINE
  8
1
 62
7
  6
CONTINUOUS
 10
213.366218
 20
400.195592
 11
213.324481
 21
400.113442
  0
LINE
  8
1
 62
7
  6
CONTINUOUS
 10
213.324481
 20
400.113442
 11
213.284965
 21
400.038288
  0
LINE
  8
1
 62
7
  6
CONTINUOUS
 10
213.284965
 20
400.038288
 11
213.248331
 21
399.970967
  0
LINE
  8
1
 62
7
  6
CONTINUOUS
 10
213.248331
 20
399.970967
 11
213.215004
 21
399.911646
  0
LINE
  8
1
 62
7
  6
CONTINUOUS
 10
213.215004
 20
399.911646
 11
213.185273
 21
399.860143
  0
LINE
  8
1
 62
7
  6
CONTINUOUS
 10
213.185273
 20
399.860143
 11
213.159381
 21
399.816213
  0
LINE
  8
1
 62
7
  6
CONTINUOUS
 10
213.159381
 20
399.816213
 11
213.137584
 21
399.779745
  0
LINE
  8
1
 62
7
  6
CONTINUOUS
 10
213.137584
 20
399.779745
 11
213.120172
 21
399.750848
  0
LINE
  8
1
 62
7
  6
CONTINUOUS
 10
213.120172
 20
399.750848
 11
213.107448
 21
399.729810
  0
LINE
  8
1
 62
7
  6
CONTINUOUS
 10
213.107448
 20
399.729810
 11
213.099685
 21
399.716991
  0
LINE
  8
1
 62
7
  6
CONTINUOUS
 10
213.099685
 20
399.716991
 11
213.097075
 21
399.712681
  0
ARC
  8
1
 62
7
  6
CONTINUOUS
 10
216.557162
 20
402.669183
 40
3.554171
 50
78.668113
 51
129.667053
  0
LINE
  8
1
 62
7
  6
CONTINUOUS
 10
214.288340
 20
405.407167
 11
214.282273
 21
405.399620
  0
LINE
  8
1
 62
7
  6
CONTINUOUS
 10
214.282273
 20
405.399620
 11
214.264241
 21
405.377176
  0
LINE
  8
1
 62
7
  6
CONTINUOUS
 10
214.264241
 20
405.377176
 11
214.234736
 21
405.340383
  0
LINE
  8
1
 62
7
  6
CONTINUOUS
 10
214.234736
 20
405.340383
 11
214.194575
 21
405.290014
  0
LINE
  8
1
 62
7
  6
CONTINUOUS
 10
214.194575
 20
405.290014
 11
214.144875
 21
405.226901
  0
LINE
  8
1
 62
7
  6
CONTINUOUS
 10
214.144875
 20
405.226901
 11
214.087034
 21
405.151808
  0
LINE
  8
1
 62
7
  6
CONTINUOUS
 10
214.087034
 20
405.151808
 11
214.022691
 21
405.065367
  0
LINE
  8
1
 62
7
  6
CONTINUOUS
 10
214.022691
 20
405.065367
 11
213.953678
 21
404.968152
  0
LINE
  8
1
 62
7
  6
CONTINUOUS
 10
213.953678
 20
404.968152
 11
213.881961
 21
404.860867
  0
LINE
  8
1
 62
7
  6
CONTINUOUS
 10
213.881961
 20
404.860867
 11
213.809575
 21
404.744634
  0
LINE
  8
1
 62
7
  6
CONTINUOUS
 10
213.809575
 20
404.744634
 11
213.738551
 21
404.621311
  0
LINE
  8
1
 62
7
  6
CONTINUOUS
 10
213.738551
 20
404.621311
 11
213.670847
 21
404.493758
  0
LINE
  8
1
 62
7
  6
CONTINUOUS
 10
213.670847
 20
404.493758
 11
213.608290
 21
404.365966
  0
LINE
  8
1
 62
7
  6
CONTINUOUS
 10
213.608290
 20
404.365966
 11
213.552516
 21
404.242990
  0
LINE
  8
1
 62
7
  6
CONTINUOUS
 10
213.552516
 20
404.242990
 11
213.504942
 21
404.130652
  0
LINE
  8
1
 62
7
  6
CONTINUOUS
 10
213.504942
 20
404.130652
 11
213.466734
 21
404.035048
  0
LINE
  8
1
 62
7
  6
CONTINUOUS
 10
213.466734
 20
404.035048
 11
213.438798
 21
403.961915
  0
LINE
  8
1
 62
7
  6
CONTINUOUS
 10
213.438798
 20
403.961915
 11
213.421781
 21
403.915962
  0
LINE
  8
1
 62
7
  6
CONTINUOUS
 10
213.421781
 20
403.915962
 11
213.416065
 21
403.900285
  0
LINE
  8
1
 62
7
  6
CONTINUOUS
 10
213.416065
 20
403.900285
 11
213.410355
 21
403.884496
  0
LINE
  8
1
 62
7
  6
CONTINUOUS
 10
213.410355
 20
403.884496
 11
213.393413
 21
403.836914
  0
LINE
  8
1
 62
7
  6
CONTINUOUS
 10
213.393413
 20
403.836914
 11
213.365817
 21
403.757044
  0
LINE
  8
1
 62
7
  6
CONTINUOUS
 10
213.365817
 20
403.757044
 11
213.328570
 21
403.644526
  0
LINE
  8
1
 62
7
  6
CONTINUOUS
 10
213.328570
 20
403.644526
 11
213.283134
 21
403.499711
  0
LINE
  8
1
 62
7
  6
CONTINUOUS
 10
213.283134
 20
403.499711
 11
213.231430
 21
403.324247
  0
LINE
  8
1
 62
7
  6
CONTINUOUS
 10
213.231430
 20
403.324247
 11
213.175786
 21
403.121526
  0
LINE
  8
1
 62
7
  6
CONTINUOUS
 10
213.175786
 20
403.121526
 11
213.118814
 21
402.896865
  0
LINE
  8
1
 62
7
  6
CONTINUOUS
 10
213.118814
 20
402.896865
 11
213.063208
 21
402.657361
  0
LINE
  8
1
 62
7
  6
CONTINUOUS
 10
213.063208
 20
402.657361
 11
213.011499
 21
402.411422
  0
LINE
  8
1
 62
7
  6
CONTINUOUS
 10
213.011499
 20
402.411422
 11
212.965794
 21
402.168065
  0
LINE
  8
1
 62
7
  6
CONTINUOUS
 10
212.965794
 20
402.168065
 11
212.927552
 21
401.936116
  0
LINE
  8
1
 62
7
  6
CONTINUOUS
 10
212.927552
 20
401.936116
 11
212.897437
 21
401.723461
  0
LINE
  8
1
 62
7
  6
CONTINUOUS
 10
212.897437
 20
401.723461
 11
212.875294
 21
401.536494
  0
LINE
  8
1
 62
7
  6
CONTINUOUS
 10
212.875294
 20
401.536494
 11
212.860248
 21
401.379854
  0
LINE
  8
1
 62
7
  6
CONTINUOUS
 10
212.860248
 20
401.379854
 11
212.850927
 21
401.256470
  0
LINE
  8
1
 62
7
  6
CONTINUOUS
 10
212.850927
 20
401.256470
 11
212.845766
 21
401.167870
  0
LINE
  8
1
 62
7
  6
CONTINUOUS
 10
212.845766
 20
401.167870
 11
212.843337
 21
401.114640
  0
LINE
  8
1
 62
7
  6
CONTINUOUS
 10
212.843337
 20
401.114640
 11
212.842646
 21
401.096898
  0
LINE
  8
1
 62
7
  6
CONTINUOUS
 10
212.842646
 20
401.096898
 11
212.842019
 21
401.079241
  0
LINE
  8
1
 62
7
  6
CONTINUOUS
 10
212.842019
 20
401.079241
 11
212.840535
 21
401.027244
  0
LINE
  8
1
 62
7
  6
CONTINUOUS
 10
212.840535
 20
401.027244
 11
212.839348
 21
400.943706
  0
LINE
  8
1
 62
7
  6
CONTINUOUS
 10
212.839348
 20
400.943706
 11
212.840244
 21
400.832902
  0
LINE
  8
1
 62
7
  6
CONTINUOUS
 10
212.840244
 20
400.832902
 11
212.845450
 21
400.700076
  0
LINE
  8
1
 62
7
  6
CONTINUOUS
 10
212.845450
 20
400.700076
 11
212.857378
 21
400.550878
  0
LINE
  8
1
 62
7
  6
CONTINUOUS
 10
212.857378
 20
400.550878
 11
212.878312
 21
400.390847
  0
LINE
  8
1
 62
7
  6
CONTINUOUS
 10
212.878312
 20
400.390847
 11
212.910091
 21
400.225027
  0
LINE
  8
1
 62
7
  6
CONTINUOUS
 10
212.910091
 20
400.225027
 11
212.953786
 21
400.057770
  0
LINE
  8
1
 62
7
  6
CONTINUOUS
 10
212.953786
 20
400.057770
 11
213.009442
 21
399.892736
  0
LINE
  8
1
 62
7
  6
CONTINUOUS
 10
213.009442
 20
399.892736
 11
213.075895
 21
399.733052
  0
LINE
  8
1
 62
7
  6
CONTINUOUS
 10
213.075895
 20
399.733052
 11
213.150721
 21
399.581559
  0
LINE
  8
1
 62
7
  6
CONTINUOUS
 10
213.150721
 20
399.581559
 11
213.230330
 21
399.441057
  0
LINE
  8
1
 62
7
  6
CONTINUOUS
 10
213.230330
 20
399.441057
 11
213.310199
 21
399.314471
  0
LINE
  8
1
 62
7
  6
CONTINUOUS
 10
213.310199
 20
399.314471
 11
213.385253
 21
399.204891
  0
LINE
  8
1
 62
7
  6
CONTINUOUS
 10
213.385253
 20
399.204891
 11
213.450332
 21
399.115449
  0
LINE
  8
1
 62
7
  6
CONTINUOUS
 10
213.450332
 20
399.115449
 11
213.500709
 21
399.049072
  0
LINE
  8
1
 62
7
  6
CONTINUOUS
 10
213.500709
 20
399.049072
 11
213.532583
 21
399.008177
  0
LINE
  8
1
 62
7
  6
CONTINUOUS
 10
213.532583
 20
399.008177
 11
213.543492
 21
398.994359
  0
LINE
  8
1
 62
7
  6
CONTINUOUS
 10
213.543492
 20
398.994359
 11
213.554495
 21
398.980509
  0
LINE
  8
1
 62
7
  6
CONTINUOUS
 10
213.554495
 20
398.980509
 11
213.587756
 21
398.939151
  0
LINE
  8
1
 62
7
  6
CONTINUOUS
 10
213.587756
 20
398.939151
 11
213.643936
 21
398.870899
  0
LINE
  8
1
 62
7
  6
CONTINUOUS
 10
213.643936
 20
398.870899
 11
213.723838
 21
398.776887
  0
LINE
  8
1
 62
7
  6
CONTINUOUS
 10
213.723838
 20
398.776887
 11
213.828028
 21
398.658906
  0
LINE
  8
1
 62
7
  6
CONTINUOUS
 10
213.828028
 20
398.658906
 11
213.956402
 21
398.519523
  0
LINE
  8
1
 62
7
  6
CONTINUOUS
 10
213.956402
 20
398.519523
 11
214.107810
 21
398.362157
  0
LINE
  8
1
 62
7
  6
CONTINUOUS
 10
214.107810
 20
398.362157
 11
214.279779
 21
398.191063
  0
LINE
  8
1
 62
7
  6
CONTINUOUS
 10
214.279779
 20
398.191063
 11
214.468415
 21
398.011211
  0
LINE
  8
1
 62
7
  6
CONTINUOUS
 10
214.468415
 20
398.011211
 11
214.668484
 21
397.828068
  0
LINE
  8
1
 62
7
  6
CONTINUOUS
 10
214.668484
 20
397.828068
 11
214.873665
 21
397.647311
  0
LINE
  8
1
 62
7
  6
CONTINUOUS
 10
214.873665
 20
397.647311
 11
215.076932
 21
397.474505
  0
LINE
  8
1
 62
7
  6
CONTINUOUS
 10
215.076932
 20
397.474505
 11
215.270999
 21
397.314807
  0
LINE
  8
1
 62
7
  6
CONTINUOUS
 10
215.270999
 20
397.314807
 11
215.448771
 21
397.172723
  0
LINE
  8
1
 62
7
  6
CONTINUOUS
 10
215.448771
 20
397.172723
 11
215.603744
 21
397.051964
  0
LINE
  8
1
 62
7
  6
CONTINUOUS
 10
215.603744
 20
397.051964
 11
215.730311
 21
396.955400
  0
LINE
  8
1
 62
7
  6
CONTINUOUS
 10
215.730311
 20
396.955400
 11
215.823981
 21
396.885098
  0
LINE
  8
1
 62
7
  6
CONTINUOUS
 10
215.823981
 20
396.885098
 11
215.881495
 21
396.842414
  0
LINE
  8
1
 62
7
  6
CONTINUOUS
 10
215.881495
 20
396.842414
 11
215.900885
 21
396.828106
  0
LINE
  8
1
 62
7
  6
CONTINUOUS
 10
215.900885
 20
396.828106
 11
215.920296
 21
396.813823
  0
LINE
  8
1
 62
7
  6
CONTINUOUS
 10
215.920296
 20
396.813823
 11
215.978122
 21
396.771514
  0
LINE
  8
1
 62
7
  6
CONTINUOUS
 10
215.978122
 20
396.771514
 11
216.073130
 21
396.702760
  0
LINE
  8
1
 62
7
  6
CONTINUOUS
 10
216.073130
 20
396.702760
 11
216.203235
 21
396.610063
  0
LINE
  8
1
 62
7
  6
CONTINUOUS
 10
216.203235
 20
396.610063
 11
216.365473
 21
396.496675
  0
LINE
  8
1
 62
7
  6
CONTINUOUS
 10
216.365473
 20
396.496675
 11
216.555986
 21
396.366389
  0
LINE
  8
1
 62
7
  6
CONTINUOUS
 10
216.555986
 20
396.366389
 11
216.770037
 21
396.223329
  0
LINE
  8
1
 62
7
  6
CONTINUOUS
 10
216.770037
 20
396.223329
 11
217.002082
 21
396.071761
  0
LINE
  8
1
 62
7
  6
CONTINUOUS
 10
217.002082
 20
396.071761
 11
217.245887
 21
395.915937
  0
LINE
  8
1
 62
7
  6
CONTINUOUS
 10
217.245887
 20
395.915937
 11
217.494706
 21
395.759991
  0
LINE
  8
1
 62
7
  6
CONTINUOUS
 10
217.494706
 20
395.759991
 11
217.741508
 21
395.607874
  0
LINE
  8
1
 62
7
  6
CONTINUOUS
 10
217.741508
 20
395.607874
 11
217.979223
 21
395.463317
  0
LINE
  8
1
 62
7
  6
CONTINUOUS
 10
217.979223
 20
395.463317
 11
218.201003
 21
395.329814
  0
LINE
  8
1
 62
7
  6
CONTINUOUS
 10
218.201003
 20
395.329814
 11
218.400464
 21
395.210595
  0
LINE
  8
1
 62
7
  6
CONTINUOUS
 10
218.400464
 20
395.210595
 11
218.571903
 21
395.108583
  0
LINE
  8
1
 62
7
  6
CONTINUOUS
 10
218.571903
 20
395.108583
 11
218.710462
 21
395.026340
  0
LINE
  8
1
 62
7
  6
CONTINUOUS
 10
218.710462
 20
395.026340
 11
218.812261
 21
394.965985
  0
LINE
  8
1
 62
7
  6
CONTINUOUS
 10
218.812261
 20
394.965985
 11
218.874481
 21
394.929110
  0
LINE
  8
1
 62
7
  6
CONTINUOUS
 10
218.874481
 20
394.929110
 11
218.895411
 21
394.916706
  0
LINE
  8
1
 62
7
  6
CONTINUOUS
 10
212.174546
 20
405.212702
 11
212.167397
 21
405.191067
  0
LINE
  8
1
 62
7
  6
CONTINUOUS
 10
212.167397
 20
405.191067
 11
212.146147
 21
405.126751
  0
LINE
  8
1
 62
7
  6
CONTINUOUS
 10
212.146147
 20
405.126751
 11
212.111406
 21
405.021500
  0
LINE
  8
1
 62
7
  6
CONTINUOUS
 10
212.111406
 20
405.021500
 11
212.064232
 21
404.878156
  0
LINE
  8
1
 62
7
  6
CONTINUOUS
 10
212.064232
 20
404.878156
 11
212.006162
 21
404.700559
  0
LINE
  8
1
 62
7
  6
CONTINUOUS
 10
212.006162
 20
404.700559
 11
211.939231
 21
404.493431
  0
LINE
  8
1
 62
7
  6
CONTINUOUS
 10
211.939231
 20
404.493431
 11
211.865927
 21
404.262241
  0
LINE
  8
1
 62
7
  6
CONTINUOUS
 10
211.865927
 20
404.262241
 11
211.789085
 21
404.013066
  0
LINE
  8
1
 62
7
  6
CONTINUOUS
 10
211.789085
 20
404.013066
 11
211.711714
 21
403.752455
  0
LINE
  8
1
 62
7
  6
CONTINUOUS
 10
211.711714
 20
403.752455
 11
211.636769
 21
403.487284
  0
LINE
  8
1
 62
7
  6
CONTINUOUS
 10
211.636769
 20
403.487284
 11
211.566909
 21
403.224620
  0
LINE
  8
1
 62
7
  6
CONTINUOUS
 10
211.566909
 20
403.224620
 11
211.504276
 21
402.971562
  0
LINE
  8
1
 62
7
  6
CONTINUOUS
 10
211.504276
 20
402.971562
 11
211.450339
 21
402.735079
  0
LINE
  8
1
 62
7
  6
CONTINUOUS
 10
211.450339
 20
402.735079
 11
211.405833
 21
402.521821
  0
LINE
  8
1
 62
7
  6
CONTINUOUS
 10
211.405833
 20
402.521821
 11
211.370818
 21
402.337923
  0
LINE
  8
1
 62
7
  6
CONTINUOUS
 10
211.370818
 20
402.337923
 11
211.344828
 21
402.188789
  0
LINE
  8
1
 62
7
  6
CONTINUOUS
 10
211.344828
 20
402.188789
 11
211.327107
 21
402.078886
  0
LINE
  8
1
 62
7
  6
CONTINUOUS
 10
211.327107
 20
402.078886
 11
211.316868
 21
402.011561
  0
LINE
  8
1
 62
7
  6
CONTINUOUS
 10
211.316868
 20
402.011561
 11
211.313526
 21
401.988885
  0
LINE
  8
1
 62
7
  6
CONTINUOUS
 10
211.313526
 20
401.988885
 11
211.310236
 21
401.966195
  0
LINE
  8
1
 62
7
  6
CONTINUOUS
 10
211.310236
 20
401.966195
 11
211.300774
 21
401.898661
  0
LINE
  8
1
 62
7
  6
CONTINUOUS
 10
211.300774
 20
401.898661
 11
211.286361
 21
401.787899
  0
LINE
  8
1
 62
7
  6
CONTINUOUS
 10
211.286361
 20
401.787899
 11
211.269020
 21
401.636612
  0
LINE
  8
1
 62
7
  6
CONTINUOUS
 10
211.269020
 20
401.636612
 11
211.251528
 21
401.448596
  0
LINE
  8
1
 62
7
  6
CONTINUOUS
 10
211.251528
 20
401.448596
 11
211.237273
 21
401.228716
  0
LINE
  8
1
 62
7
  6
CONTINUOUS
 10
211.237273
 20
401.228716
 11
211.229993
 21
400.982838
  0
LINE
  8
1
 62
7
  6
CONTINUOUS
 10
211.229993
 20
400.982838
 11
211.233394
 21
400.717698
  0
LINE
  8
1
 62
7
  6
CONTINUOUS
 10
211.233394
 20
400.717698
 11
211.250646
 21
400.440718
  0
LINE
  8
1
 62
7
  6
CONTINUOUS
 10
211.250646
 20
400.440718
 11
211.283844
 21
400.159749
  0
LINE
  8
1
 62
7
  6
CONTINUOUS
 10
211.283844
 20
400.159749
 11
211.333504
 21
399.882795
  0
LINE
  8
1
 62
7
  6
CONTINUOUS
 10
211.333504
 20
399.882795
 11
211.398210
 21
399.617706
  0
LINE
  8
1
 62
7
  6
CONTINUOUS
 10
211.398210
 20
399.617706
 11
211.474489
 21
399.371897
  0
LINE
  8
1
 62
7
  6
CONTINUOUS
 10
211.474489
 20
399.371897
 11
211.556990
 21
399.152097
  0
LINE
  8
1
 62
7
  6
CONTINUOUS
 10
211.556990
 20
399.152097
 11
211.638968
 21
398.964163
  0
LINE
  8
1
 62
7
  6
CONTINUOUS
 10
211.638968
 20
398.964163
 11
211.713031
 21
398.812951
  0
LINE
  8
1
 62
7
  6
CONTINUOUS
 10
211.713031
 20
398.812951
 11
211.772051
 21
398.702250
  0
LINE
  8
1
 62
7
  6
CONTINUOUS
 10
211.772051
 20
398.702250
 11
211.810094
 21
398.634755
  0
LINE
  8
1
 62
7
  6
CONTINUOUS
 10
211.810094
 20
398.634755
 11
211.823232
 21
398.612079
  0
LINE
  8
1
 62
7
  6
CONTINUOUS
 10
211.823232
 20
398.612079
 11
211.836544
 21
398.589417
  0
LINE
  8
1
 62
7
  6
CONTINUOUS
 10
211.836544
 20
398.589417
 11
211.877123
 21
398.522140
  0
LINE
  8
1
 62
7
  6
CONTINUOUS
 10
211.877123
 20
398.522140
 11
211.946682
 21
398.412380
  0
LINE
  8
1
 62
7
  6
CONTINUOUS
 10
211.946682
 20
398.412380
 11
212.047392
 21
398.263687
  0
LINE
  8
1
 62
7
  6
CONTINUOUS
 10
212.047392
 20
398.263687
 11
212.181024
 21
398.081000
  0
LINE
  8
1
 62
7
  6
CONTINUOUS
 10
212.181024
 20
398.081000
 11
212.348037
 21
397.870542
  0
LINE
  8
1
 62
7
  6
CONTINUOUS
 10
212.348037
 20
397.870542
 11
212.546821
 21
397.639623
  0
LINE
  8
1
 62
7
  6
CONTINUOUS
 10
212.546821
 20
397.639623
 11
212.773268
 21
397.396322
  0
LINE
  8
1
 62
7
  6
CONTINUOUS
 10
212.773268
 20
397.396322
 11
213.020776
 21
397.149063
  0
LINE
  8
1
 62
7
  6
CONTINUOUS
 10
213.020776
 20
397.149063
 11
213.280681
 21
396.906118
  0
LINE
  8
1
 62
7
  6
CONTINUOUS
 10
213.280681
 20
396.906118
 11
213.543031
 21
396.675103
  0
LINE
  8
1
 62
7
  6
CONTINUOUS
 10
213.543031
 20
396.675103
 11
213.797554
 21
396.462530
  0
LINE
  8
1
 62
7
  6
CONTINUOUS
 10
213.797554
 20
396.462530
 11
214.034605
 21
396.273494
  0
LINE
  8
1
 62
7
  6
CONTINUOUS
 10
214.034605
 20
396.273494
 11
214.245929
 21
396.111534
  0
LINE
  8
1
 62
7
  6
CONTINUOUS
 10
214.245929
 20
396.111534
 11
214.425116
 21
395.978703
  0
LINE
  8
1
 62
7
  6
CONTINUOUS
 10
214.425116
 20
395.978703
 11
214.567686
 21
395.875825
  0
LINE
  8
1
 62
7
  6
CONTINUOUS
 10
214.567686
 20
395.875825
 11
214.670875
 21
395.802872
  0
LINE
  8
1
 62
7
  6
CONTINUOUS
 10
214.670875
 20
395.802872
 11
214.733210
 21
395.759407
  0
LINE
  8
1
 62
7
  6
CONTINUOUS
 10
214.733210
 20
395.759407
 11
214.754045
 21
395.744979
  0
LINE
  8
1
 62
7
  6
CONTINUOUS
 10
214.754045
 20
395.744979
 11
214.774811
 21
395.730650
  0
LINE
  8
1
 62
7
  6
CONTINUOUS
 10
214.774811
 20
395.730650
 11
214.836133
 21
395.688629
  0
LINE
  8
1
 62
7
  6
CONTINUOUS
 10
214.836133
 20
395.688629
 11
214.935184
 21
395.621690
  0
LINE
  8
1
 62
7
  6
CONTINUOUS
 10
214.935184
 20
395.621690
 11
215.067561
 21
395.534055
  0
LINE
  8
1
 62
7
  6
CONTINUOUS
 10
215.067561
 20
395.534055
 11
215.227690
 21
395.430879
  0
LINE
  8
1
 62
7
  6
CONTINUOUS
 10
215.227690
 20
395.430879
 11
215.409303
 21
395.317652
  0
LINE
  8
1
 62
7
  6
CONTINUOUS
 10
215.409303
 20
395.317652
 11
215.605900
 21
395.199644
  0
LINE
  8
1
 62
7
  6
CONTINUOUS
 10
215.605900
 20
395.199644
 11
215.811133
 21
395.081458
  0
LINE
  8
1
 62
7
  6
CONTINUOUS
 10
215.811133
 20
395.081458
 11
216.019085
 21
394.966771
  0
LINE
  8
1
 62
7
  6
CONTINUOUS
 10
216.019085
 20
394.966771
 11
216.224397
 21
394.858266
  0
LINE
  8
1
 62
7
  6
CONTINUOUS
 10
216.224397
 20
394.858266
 11
216.422294
 21
394.757744
  0
LINE
  8
1
 62
7
  6
CONTINUOUS
 10
216.422294
 20
394.757744
 11
216.608507
 21
394.666352
  0
LINE
  8
1
 62
7
  6
CONTINUOUS
 10
216.608507
 20
394.666352
 11
216.779179
 21
394.584864
  0
LINE
  8
1
 62
7
  6
CONTINUOUS
 10
216.779179
 20
394.584864
 11
216.930773
 21
394.513926
  0
LINE
  8
1
 62
7
  6
CONTINUOUS
 10
216.930773
 20
394.513926
 11
217.060041
 21
394.454224
  0
LINE
  8
1
 62
7
  6
CONTINUOUS
 10
217.060041
 20
394.454224
 11
217.164058
 21
394.406538
  0
LINE
  8
1
 62
7
  6
CONTINUOUS
 10
217.164058
 20
394.406538
 11
217.240326
 21
394.371693
  0
LINE
  8
1
 62
7
  6
CONTINUOUS
 10
217.240326
 20
394.371693
 11
217.286910
 21
394.350435
  0
LINE
  8
1
 62
7
  6
CONTINUOUS
 10
217.286910
 20
394.350435
 11
217.302578
 21
394.343286
  0
LINE
  8
1
 62
7
  6
CONTINUOUS
 10
212.271232
 20
415.267733
 11
212.267147
 21
415.279272
  0
LINE
  8
1
 62
7
  6
CONTINUOUS
 10
212.267147
 20
415.279272
 11
212.255005
 21
415.313573
  0
LINE
  8
1
 62
7
  6
CONTINUOUS
 10
212.255005
 20
415.313573
 11
212.235164
 21
415.369694
  0
LINE
  8
1
 62
7
  6
CONTINUOUS
 10
212.235164
 20
415.369694
 11
212.208252
 21
415.446086
  0
LINE
  8
1
 62
7
  6
CONTINUOUS
 10
212.208252
 20
415.446086
 11
212.175210
 21
415.540615
  0
LINE
  8
1
 62
7
  6
CONTINUOUS
 10
212.175210
 20
415.540615
 11
212.137307
 21
415.650618
  0
LINE
  8
1
 62
7
  6
CONTINUOUS
 10
212.137307
 20
415.650618
 11
212.096117
 21
415.772969
  0
LINE
  8
1
 62
7
  6
CONTINUOUS
 10
212.096117
 20
415.772969
 11
212.053448
 21
415.904171
  0
LINE
  8
1
 62
7
  6
CONTINUOUS
 10
212.053448
 20
415.904171
 11
212.011208
 21
416.040474
  0
LINE
  8
1
 62
7
  6
CONTINUOUS
 10
212.011208
 20
416.040474
 11
211.971239
 21
416.177999
  0
LINE
  8
1
 62
7
  6
CONTINUOUS
 10
211.971239
 20
416.177999
 11
211.935135
 21
416.312878
  0
LINE
  8
1
 62
7
  6
CONTINUOUS
 10
211.935135
 20
416.312878
 11
211.904072
 21
416.441388
  0
LINE
  8
1
 62
7
  6
CONTINUOUS
 10
211.904072
 20
416.441388
 11
211.878702
 21
416.560067
  0
LINE
  8
1
 62
7
  6
CONTINUOUS
 10
211.878702
 20
416.560067
 11
211.859117
 21
416.665819
  0
LINE
  8
1
 62
7
  6
CONTINUOUS
 10
211.859117
 20
416.665819
 11
211.844907
 21
416.755978
  0
LINE
  8
1
 62
7
  6
CONTINUOUS
 10
211.844907
 20
416.755978
 11
211.835300
 21
416.828353
  0
LINE
  8
1
 62
7
  6
CONTINUOUS
 10
211.835300
 20
416.828353
 11
211.829361
 21
416.881248
  0
LINE
  8
1
 62
7
  6
CONTINUOUS
 10
211.829361
 20
416.881248
 11
211.826214
 21
416.913462
  0
LINE
  8
1
 62
7
  6
CONTINUOUS
 10
211.826214
 20
416.913462
 11
211.825239
 21
416.924279
  0
LINE
  8
1
 62
7
  6
CONTINUOUS
 10
211.825239
 20
416.924279
 11
211.824306
 21
416.935086
  0
LINE
  8
1
 62
7
  6
CONTINUOUS
 10
211.824306
 20
416.935086
 11
211.821784
 21
416.967155
  0
LINE
  8
1
 62
7
  6
CONTINUOUS
 10
211.821784
 20
416.967155
 11
211.818446
 21
417.019447
  0
LINE
  8
1
 62
7
  6
CONTINUOUS
 10
211.818446
 20
417.019447
 11
211.815420
 21
417.090295
  0
LINE
  8
1
 62
7
  6
CONTINUOUS
 10
211.815420
 20
417.090295
 11
211.813987
 21
417.177488
  0
LINE
  8
1
 62
7
  6
CONTINUOUS
 10
211.813987
 20
417.177488
 11
211.815346
 21
417.278380
  0
LINE
  8
1
 62
7
  6
CONTINUOUS
 10
211.815346
 20
417.278380
 11
211.820403
 21
417.389998
  0
LINE
  8
1
 62
7
  6
CONTINUOUS
 10
211.820403
 20
417.389998
 11
211.829621
 21
417.509159
  0
LINE
  8
1
 62
7
  6
CONTINUOUS
 10
211.829621
 20
417.509159
 11
211.842945
 21
417.632567
  0
LINE
  8
1
 62
7
  6
CONTINUOUS
 10
211.842945
 20
417.632567
 11
211.859817
 21
417.756901
  0
LINE
  8
1
 62
7
  6
CONTINUOUS
 10
211.859817
 20
417.756901
 11
211.879276
 21
417.878885
  0
LINE
  8
1
 62
7
  6
CONTINUOUS
 10
211.879276
 20
417.878885
 11
211.900100
 21
417.995353
  0
LINE
  8
1
 62
7
  6
CONTINUOUS
 10
211.900100
 20
417.995353
 11
211.920977
 21
418.103300
  0
LINE
  8
1
 62
7
  6
CONTINUOUS
 10
211.920977
 20
418.103300
 11
211.940654
 21
418.199940
  0
LINE
  8
1
 62
7
  6
CONTINUOUS
 10
211.940654
 20
418.199940
 11
211.958053
 21
418.282763
  0
LINE
  8
1
 62
7
  6
CONTINUOUS
 10
211.958053
 20
418.282763
 11
211.972333
 21
418.349595
  0
LINE
  8
1
 62
7
  6
CONTINUOUS
 10
211.972333
 20
418.349595
 11
211.982897
 21
418.398660
  0
LINE
  8
1
 62
7
  6
CONTINUOUS
 10
211.982897
 20
418.398660
 11
211.989369
 21
418.428642
  0
LINE
  8
1
 62
7
  6
CONTINUOUS
 10
211.989369
 20
418.428642
 11
211.991546
 21
418.438727
  0
LINE
  8
1
 62
7
  6
CONTINUOUS
 10
214.149226
 20
415.282969
 11
214.146531
 21
415.286674
  0
LINE
  8
1
 62
7
  6
CONTINUOUS
 10
214.146531
 20
415.286674
 11
214.138521
 21
415.297687
  0
LINE
  8
1
 62
7
  6
CONTINUOUS
 10
214.138521
 20
415.297687
 11
214.125426
 21
415.315714
  0
LINE
  8
1
 62
7
  6
CONTINUOUS
 10
214.125426
 20
415.315714
 11
214.107649
 21
415.340280
  0
LINE
  8
1
 62
7
  6
CONTINUOUS
 10
214.107649
 20
415.340280
 11
214.085777
 21
415.370755
  0
LINE
  8
1
 62
7
  6
CONTINUOUS
 10
214.085777
 20
415.370755
 11
214.060591
 21
415.406381
  0
LINE
  8
1
 62
7
  6
CONTINUOUS
 10
214.060591
 20
415.406381
 11
214.033049
 21
415.446292
  0
LINE
  8
1
 62
7
  6
CONTINUOUS
 10
214.033049
 20
415.446292
 11
214.004245
 21
415.489535
  0
LINE
  8
1
 62
7
  6
CONTINUOUS
 10
214.004245
 20
415.489535
 11
213.975336
 21
415.535077
  0
LINE
  8
1
 62
7
  6
CONTINUOUS
 10
213.975336
 20
415.535077
 11
213.947457
 21
415.581811
  0
LINE
  8
1
 62
7
  6
CONTINUOUS
 10
213.947457
 20
415.581811
 11
213.921621
 21
415.628562
  0
LINE
  8
1
 62
7
  6
CONTINUOUS
 10
213.921621
 20
415.628562
 11
213.898627
 21
415.674092
  0
LINE
  8
1
 62
7
  6
CONTINUOUS
 10
213.898627
 20
415.674092
 11
213.879007
 21
415.717121
  0
LINE
  8
1
 62
7
  6
CONTINUOUS
 10
213.879007
 20
415.717121
 11
213.862993
 21
415.756357
  0
LINE
  8
1
 62
7
  6
CONTINUOUS
 10
213.862993
 20
415.756357
 11
213.850550
 21
415.790543
  0
LINE
  8
1
 62
7
  6
CONTINUOUS
 10
213.850550
 20
415.790543
 11
213.841438
 21
415.818519
  0
LINE
  8
1
 62
7
  6
CONTINUOUS
 10
213.841438
 20
415.818519
 11
213.835304
 21
415.839286
  0
LINE
  8
1
 62
7
  6
CONTINUOUS
 10
213.835304
 20
415.839286
 11
213.831797
 21
415.852071
  0
LINE
  8
1
 62
7
  6
CONTINUOUS
 10
213.831797
 20
415.852071
 11
213.830660
 21
415.856389
  0
LINE
  8
1
 62
7
  6
CONTINUOUS
 10
213.830660
 20
415.856389
 11
213.829543
 21
415.860715
  0
LINE
  8
1
 62
7
  6
CONTINUOUS
 10
213.829543
 20
415.860715
 11
213.826349
 21
415.873624
  0
LINE
  8
1
 62
7
  6
CONTINUOUS
 10
213.826349
 20
415.873624
 11
213.821518
 21
415.894903
  0
LINE
  8
1
 62
7
  6
CONTINUOUS
 10
213.821518
 20
415.894903
 11
213.815701
 21
415.924176
  0
LINE
  8
1
 62
7
  6
CONTINUOUS
 10
213.815701
 20
415.924176
 11
213.809656
 21
415.960880
  0
LINE
  8
1
 62
7
  6
CONTINUOUS
 10
213.809656
 20
415.960880
 11
213.804129
 21
416.004243
  0
LINE
  8
1
 62
7
  6
CONTINUOUS
 10
213.804129
 20
416.004243
 11
213.799744
 21
416.053269
  0
LINE
  8
1
 62
7
  6
CONTINUOUS
 10
213.799744
 20
416.053269
 11
213.796920
 21
416.106737
  0
LINE
  8
1
 62
7
  6
CONTINUOUS
 10
213.796920
 20
416.106737
 11
213.795832
 21
416.163228
  0
LINE
  8
1
 62
7
  6
CONTINUOUS
 10
213.795832
 20
416.163228
 11
213.796414
 21
416.221163
  0
LINE
  8
1
 62
7
  6
CONTINUOUS
 10
213.796414
 20
416.221163
 11
213.798399
 21
416.278864
  0
LINE
  8
1
 62
7
  6
CONTINUOUS
 10
213.798399
 20
416.278864
 11
213.801386
 21
416.334619
  0
LINE
  8
1
 62
7
  6
CONTINUOUS
 10
213.801386
 20
416.334619
 11
213.804922
 21
416.386762
  0
LINE
  8
1
 62
7
  6
CONTINUOUS
 10
213.804922
 20
416.386762
 11
213.808567
 21
416.433735
  0
LINE
  8
1
 62
7
  6
CONTINUOUS
 10
213.808567
 20
416.433735
 11
213.811952
 21
416.474150
  0
LINE
  8
1
 62
7
  6
CONTINUOUS
 10
213.811952
 20
416.474150
 11
213.814799
 21
416.506833
  0
LINE
  8
1
 62
7
  6
CONTINUOUS
 10
213.814799
 20
416.506833
 11
213.816929
 21
416.530852
  0
LINE
  8
1
 62
7
  6
CONTINUOUS
 10
213.816929
 20
416.530852
 11
213.818239
 21
416.545533
  0
LINE
  8
1
 62
7
  6
CONTINUOUS
 10
213.818239
 20
416.545533
 11
213.818680
 21
416.550472
  0
LINE
  8
1
 62
7
  6
CONTINUOUS
 10
212.173422
 20
425.315334
 11
212.166283
 21
425.293723
  0
LINE
  8
1
 62
7
  6
CONTINUOUS
 10
212.166283
 20
425.293723
 11
212.145062
 21
425.229479
  0
LINE
  8
1
 62
7
  6
CONTINUOUS
 10
212.145062
 20
425.229479
 11
212.110368
 21
425.124345
  0
LINE
  8
1
 62
7
  6
CONTINUOUS
 10
212.110368
 20
425.124345
 11
212.063258
 21
424.981160
  0
LINE
  8
1
 62
7
  6
CONTINUOUS
 10
212.063258
 20
424.981160
 11
212.005267
 21
424.803759
  0
LINE
  8
1
 62
7
  6
CONTINUOUS
 10
212.005267
 20
424.803759
 11
211.938426
 21
424.596857
  0
LINE
  8
1
 62
7
  6
CONTINUOUS
 10
211.938426
 20
424.596857
 11
211.865221
 21
424.365913
  0
LINE
  8
1
 62
7
  6
CONTINUOUS
 10
211.865221
 20
424.365913
 11
211.788483
 21
424.116995
  0
LINE
  8
1
 62
7
  6
CONTINUOUS
 10
211.788483
 20
424.116995
 11
211.711215
 21
423.856640
  0
LINE
  8
1
 62
7
  6
CONTINUOUS
 10
211.711215
 20
423.856640
 11
211.636369
 21
423.591716
  0
LINE
  8
1
 62
7
  6
CONTINUOUS
 10
211.636369
 20
423.591716
 11
211.566600
 21
423.329278
  0
LINE
  8
1
 62
7
  6
CONTINUOUS
 10
211.566600
 20
423.329278
 11
211.504048
 21
423.076420
  0
LINE
  8
1
 62
7
  6
CONTINUOUS
 10
211.504048
 20
423.076420
 11
211.450178
 21
422.840105
  0
LINE
  8
1
 62
7
  6
CONTINUOUS
 10
211.450178
 20
422.840105
 11
211.405727
 21
422.626984
  0
LINE
  8
1
 62
7
  6
CONTINUOUS
 10
211.405727
 20
422.626984
 11
211.370753
 21
422.443190
  0
LINE
  8
1
 62
7
  6
CONTINUOUS
 10
211.370753
 20
422.443190
 11
211.344793
 21
422.294130
  0
LINE
  8
1
 62
7
  6
CONTINUOUS
 10
211.344793
 20
422.294130
 11
211.327092
 21
422.184276
  0
LINE
  8
1
 62
7
  6
CONTINUOUS
 10
211.327092
 20
422.184276
 11
211.316864
 21
422.116979
  0
LINE
  8
1
 62
7
  6
CONTINUOUS
 10
211.316864
 20
422.116979
 11
211.313526
 21
422.094312
  0
LINE
  8
1
 62
7
  6
CONTINUOUS
 10
211.313526
 20
422.094312
 11
211.310240
 21
422.071631
  0
LINE
  8
1
 62
7
  6
CONTINUOUS
 10
211.310240
 20
422.071631
 11
211.300788
 21
422.004122
  0
LINE
  8
1
 62
7
  6
CONTINUOUS
 10
211.300788
 20
422.004122
 11
211.286389
 21
421.893397
  0
LINE
  8
1
 62
7
  6
CONTINUOUS
 10
211.286389
 20
421.893397
 11
211.269066
 21
421.742152
  0
LINE
  8
1
 62
7
  6
CONTINUOUS
 10
211.269066
 20
421.742152
 11
211.251591
 21
421.554178
  0
LINE
  8
1
 62
7
  6
CONTINUOUS
 10
211.251591
 20
421.554178
 11
211.237349
 21
421.334333
  0
LINE
  8
1
 62
7
  6
CONTINUOUS
 10
211.237349
 20
421.334333
 11
211.230079
 21
421.088477
  0
LINE
  8
1
 62
7
  6
CONTINUOUS
 10
211.230079
 20
421.088477
 11
211.233483
 21
420.823346
  0
LINE
  8
1
 62
7
  6
CONTINUOUS
 10
211.233483
 20
420.823346
 11
211.250732
 21
420.546359
  0
LINE
  8
1
 62
7
  6
CONTINUOUS
 10
211.250732
 20
420.546359
 11
211.283922
 21
420.265371
  0
LINE
  8
1
 62
7
  6
CONTINUOUS
 10
211.283922
 20
420.265371
 11
211.333571
 21
419.988388
  0
LINE
  8
1
 62
7
  6
CONTINUOUS
 10
211.333571
 20
419.988388
 11
211.398264
 21
419.723266
  0
LINE
  8
1
 62
7
  6
CONTINUOUS
 10
211.398264
 20
419.723266
 11
211.474529
 21
419.477423
  0
LINE
  8
1
 62
7
  6
CONTINUOUS
 10
211.474529
 20
419.477423
 11
211.557017
 21
419.257592
  0
LINE
  8
1
 62
7
  6
CONTINUOUS
 10
211.557017
 20
419.257592
 11
211.638985
 21
419.069633
  0
LINE
  8
1
 62
7
  6
CONTINUOUS
 10
211.638985
 20
419.069633
 11
211.713041
 21
418.918402
  0
LINE
  8
1
 62
7
  6
CONTINUOUS
 10
211.713041
 20
418.918402
 11
211.772055
 21
418.807687
  0
LINE
  8
1
 62
7
  6
CONTINUOUS
 10
211.772055
 20
418.807687
 11
211.810094
 21
418.740185
  0
LINE
  8
1
 62
7
  6
CONTINUOUS
 10
211.810094
 20
418.740185
 11
211.823232
 21
418.717506
  0
LINE
  8
1
 62
7
  6
CONTINUOUS
 10
211.823232
 20
418.717506
 11
211.836543
 21
418.694842
  0
LINE
  8
1
 62
7
  6
CONTINUOUS
 10
211.836543
 20
418.694842
 11
211.877120
 21
418.627559
  0
LINE
  8
1
 62
7
  6
CONTINUOUS
 10
211.877120
 20
418.627559
 11
211.946675
 21
418.517788
  0
LINE
  8
1
 62
7
  6
CONTINUOUS
 10
211.946675
 20
418.517788
 11
212.047380
 21
418.369084
  0
LINE
  8
1
 62
7
  6
CONTINUOUS
 10
212.047380
 20
418.369084
 11
212.181007
 21
418.186385
  0
LINE
  8
1
 62
7
  6
CONTINUOUS
 10
212.181007
 20
418.186385
 11
212.348017
 21
417.975917
  0
LINE
  8
1
 62
7
  6
CONTINUOUS
 10
212.348017
 20
417.975917
 11
212.546798
 21
417.744992
  0
LINE
  8
1
 62
7
  6
CONTINUOUS
 10
212.546798
 20
417.744992
 11
212.773244
 21
417.501689
  0
LINE
  8
1
 62
7
  6
CONTINUOUS
 10
212.773244
 20
417.501689
 11
213.020753
 21
417.254432
  0
LINE
  8
1
 62
7
  6
CONTINUOUS
 10
213.020753
 20
417.254432
 11
213.280659
 21
417.011492
  0
LINE
  8
1
 62
7
  6
CONTINUOUS
 10
213.280659
 20
417.011492
 11
213.543013
 21
416.780484
  0
LINE
  8
1
 62
7
  6
CONTINUOUS
 10
213.543013
 20
416.780484
 11
213.797539
 21
416.567921
  0
LINE
  8
1
 62
7
  6
CONTINUOUS
 10
213.797539
 20
416.567921
 11
214.034594
 21
416.378894
  0
LINE
  8
1
 62
7
  6
CONTINUOUS
 10
214.034594
 20
416.378894
 11
214.245922
 21
416.216942
  0
LINE
  8
1
 62
7
  6
CONTINUOUS
 10
214.245922
 20
416.216942
 11
214.425111
 21
416.084119
  0
LINE
  8
1
 62
7
  6
CONTINUOUS
 10
214.425111
 20
416.084119
 11
214.567683
 21
415.981246
  0
LINE
  8
1
 62
7
  6
CONTINUOUS
 10
214.567683
 20
415.981246
 11
214.670874
 21
415.908297
  0
LINE
  8
1
 62
7
  6
CONTINUOUS
 10
214.670874
 20
415.908297
 11
214.733210
 21
415.864833
  0
LINE
  8
1
 62
7
  6
CONTINUOUS
 10
214.733210
 20
415.864833
 11
214.754045
 21
415.850406
  0
LINE
  8
1
 62
7
  6
CONTINUOUS
 10
214.754045
 20
415.850406
 11
214.774811
 21
415.836078
  0
LINE
  8
1
 62
7
  6
CONTINUOUS
 10
214.774811
 20
415.836078
 11
214.836134
 21
415.794059
  0
LINE
  8
1
 62
7
  6
CONTINUOUS
 10
214.836134
 20
415.794059
 11
214.935187
 21
415.727123
  0
LINE
  8
1
 62
7
  6
CONTINUOUS
 10
214.935187
 20
415.727123
 11
215.067564
 21
415.639491
  0
LINE
  8
1
 62
7
  6
CONTINUOUS
 10
215.067564
 20
415.639491
 11
215.227695
 21
415.536318
  0
LINE
  8
1
 62
7
  6
CONTINUOUS
 10
215.227695
 20
415.536318
 11
215.409310
 21
415.423095
  0
LINE
  8
1
 62
7
  6
CONTINUOUS
 10
215.409310
 20
415.423095
 11
215.605907
 21
415.305089
  0
LINE
  8
1
 62
7
  6
CONTINUOUS
 10
215.605907
 20
415.305089
 11
215.811141
 21
415.186905
  0
LINE
  8
1
 62
7
  6
CONTINUOUS
 10
215.811141
 20
415.186905
 11
216.019092
 21
415.072218
  0
LINE
  8
1
 62
7
  6
CONTINUOUS
 10
216.019092
 20
415.072218
 11
216.224405
 21
414.963711
  0
LINE
  8
1
 62
7
  6
CONTINUOUS
 10
216.224405
 20
414.963711
 11
216.422300
 21
414.863187
  0
LINE
  8
1
 62
7
  6
CONTINUOUS
 10
216.422300
 20
414.863187
 11
216.608512
 21
414.771793
  0
LINE
  8
1
 62
7
  6
CONTINUOUS
 10
216.608512
 20
414.771793
 11
216.779183
 21
414.690302
  0
LINE
  8
1
 62
7
  6
CONTINUOUS
 10
216.779183
 20
414.690302
 11
216.930776
 21
414.619361
  0
LINE
  8
1
 62
7
  6
CONTINUOUS
 10
216.930776
 20
414.619361
 11
217.060043
 21
414.559656
  0
LINE
  8
1
 62
7
  6
CONTINUOUS
 10
217.060043
 20
414.559656
 11
217.164059
 21
414.511968
  0
LINE
  8
1
 62
7
  6
CONTINUOUS
 10
217.164059
 20
414.511968
 11
217.240327
 21
414.477122
  0
LINE
  8
1
 62
7
  6
CONTINUOUS
 10
217.240327
 20
414.477122
 11
217.286910
 21
414.455862
  0
LINE
  8
1
 62
7
  6
CONTINUOUS
 10
217.286910
 20
414.455862
 11
217.302578
 21
414.448713
  0
LINE
  8
1
 62
7
  6
CONTINUOUS
 10
214.289572
 20
425.509910
 11
214.283495
 21
425.502385
  0
LINE
  8
1
 62
7
  6
CONTINUOUS
 10
214.283495
 20
425.502385
 11
214.265430
 21
425.480010
  0
LINE
  8
1
 62
7
  6
CONTINUOUS
 10
214.265430
 20
425.480010
 11
214.235874
 21
425.443331
  0
LINE
  8
1
 62
7
  6
CONTINUOUS
 10
214.235874
 20
425.443331
 11
214.195642
 21
425.393114
  0
LINE
  8
1
 62
7
  6
CONTINUOUS
 10
214.195642
 20
425.393114
 11
214.145856
 21
425.330190
  0
LINE
  8
1
 62
7
  6
CONTINUOUS
 10
214.145856
 20
425.330190
 11
214.087916
 21
425.255313
  0
LINE
  8
1
 62
7
  6
CONTINUOUS
 10
214.087916
 20
425.255313
 11
214.023464
 21
425.169108
  0
LINE
  8
1
 62
7
  6
CONTINUOUS
 10
214.023464
 20
425.169108
 11
213.954338
 21
425.072140
  0
LINE
  8
1
 62
7
  6
CONTINUOUS
 10
213.954338
 20
425.072140
 11
213.882508
 21
424.965102
  0
LINE
  8
1
 62
7
  6
CONTINUOUS
 10
213.882508
 20
424.965102
 11
213.810014
 21
424.849105
  0
LINE
  8
1
 62
7
  6
CONTINUOUS
 10
213.810014
 20
424.849105
 11
213.738889
 21
424.725999
  0
LINE
  8
1
 62
7
  6
CONTINUOUS
 10
213.738889
 20
424.725999
 11
213.671098
 21
424.598638
  0
LINE
  8
1
 62
7
  6
CONTINUOUS
 10
213.671098
 20
424.598638
 11
213.608466
 21
424.471008
  0
LINE
  8
1
 62
7
  6
CONTINUOUS
 10
213.608466
 20
424.471008
 11
213.552633
 21
424.348163
  0
LINE
  8
1
 62
7
  6
CONTINUOUS
 10
213.552633
 20
424.348163
 11
213.505013
 21
424.235924
  0
LINE
  8
1
 62
7
  6
CONTINUOUS
 10
213.505013
 20
424.235924
 11
213.466772
 21
424.140393
  0
LINE
  8
1
 62
7
  6
CONTINUOUS
 10
213.466772
 20
424.140393
 11
213.438814
 21
424.067307
  0
LINE
  8
1
 62
7
  6
CONTINUOUS
 10
213.438814
 20
424.067307
 11
213.421785
 21
424.021381
  0
LINE
  8
1
 62
7
  6
CONTINUOUS
 10
213.421785
 20
424.021381
 11
213.416065
 21
424.005712
  0
LINE
  8
1
 62
7
  6
CONTINUOUS
 10
213.416065
 20
424.005712
 11
213.410351
 21
423.989932
  0
LINE
  8
1
 62
7
  6
CONTINUOUS
 10
213.410351
 20
423.989932
 11
213.393398
 21
423.942374
  0
LINE
  8
1
 62
7
  6
CONTINUOUS
 10
213.393398
 20
423.942374
 11
213.365786
 21
423.862539
  0
LINE
  8
1
 62
7
  6
CONTINUOUS
 10
213.365786
 20
423.862539
 11
213.328520
 21
423.750062
  0
LINE
  8
1
 62
7
  6
CONTINUOUS
 10
213.328520
 20
423.750062
 11
213.283066
 21
423.605287
  0
LINE
  8
1
 62
7
  6
CONTINUOUS
 10
213.283066
 20
423.605287
 11
213.231346
 21
423.429856
  0
LINE
  8
1
 62
7
  6
CONTINUOUS
 10
213.231346
 20
423.429856
 11
213.175693
 21
423.227157
  0
LINE
  8
1
 62
7
  6
CONTINUOUS
 10
213.175693
 20
423.227157
 11
213.118717
 21
423.002504
  0
LINE
  8
1
 62
7
  6
CONTINUOUS
 10
213.118717
 20
423.002504
 11
213.063114
 21
422.762994
  0
LINE
  8
1
 62
7
  6
CONTINUOUS
 10
213.063114
 20
422.762994
 11
213.011413
 21
422.517036
  0
LINE
  8
1
 62
7
  6
CONTINUOUS
 10
213.011413
 20
422.517036
 11
212.965721
 21
422.273651
  0
LINE
  8
1
 62
7
  6
CONTINUOUS
 10
212.965721
 20
422.273651
 11
212.927494
 21
422.041671
  0
LINE
  8
1
 62
7
  6
CONTINUOUS
 10
212.927494
 20
422.041671
 11
212.897394
 21
421.828983
  0
LINE
  8
1
 62
7
  6
CONTINUOUS
 10
212.897394
 20
421.828983
 11
212.875264
 21
421.641987
  0
LINE
  8
1
 62
7
  6
CONTINUOUS
 10
212.875264
 20
421.641987
 11
212.860229
 21
421.485322
  0
LINE
  8
1
 62
7
  6
CONTINUOUS
 10
212.860229
 20
421.485322
 11
212.850916
 21
421.361919
  0
LINE
  8
1
 62
7
  6
CONTINUOUS
 10
212.850916
 20
421.361919
 11
212.845761
 21
421.273306
  0
LINE
  8
1
 62
7
  6
CONTINUOUS
 10
212.845761
 20
421.273306
 11
212.843336
 21
421.220070
  0
LINE
  8
1
 62
7
  6
CONTINUOUS
 10
212.843336
 20
421.220070
 11
212.842646
 21
421.202326
  0
LINE
  8
1
 62
7
  6
CONTINUOUS
 10
212.842646
 20
421.202326
 11
212.842020
 21
421.184666
  0
LINE
  8
1
 62
7
  6
CONTINUOUS
 10
212.842020
 20
421.184666
 11
212.840539
 21
421.132662
  0
LINE
  8
1
 62
7
  6
CONTINUOUS
 10
212.840539
 20
421.132662
 11
212.839356
 21
421.049115
  0
LINE
  8
1
 62
7
  6
CONTINUOUS
 10
212.839356
 20
421.049115
 11
212.840257
 21
420.938300
  0
LINE
  8
1
 62
7
  6
CONTINUOUS
 10
212.840257
 20
420.938300
 11
212.845469
 21
420.805463
  0
LINE
  8
1
 62
7
  6
CONTINUOUS
 10
212.845469
 20
420.805463
 11
212.857400
 21
420.656256
  0
LINE
  8
1
 62
7
  6
CONTINUOUS
 10
212.857400
 20
420.656256
 11
212.878337
 21
420.496220
  0
LINE
  8
1
 62
7
  6
CONTINUOUS
 10
212.878337
 20
420.496220
 11
212.910117
 21
420.330398
  0
LINE
  8
1
 62
7
  6
CONTINUOUS
 10
212.910117
 20
420.330398
 11
212.953812
 21
420.163142
  0
LINE
  8
1
 62
7
  6
CONTINUOUS
 10
212.953812
 20
420.163142
 11
213.009465
 21
419.998113
  0
LINE
  8
1
 62
7
  6
CONTINUOUS
 10
213.009465
 20
419.998113
 11
213.075914
 21
419.838437
  0
LINE
  8
1
 62
7
  6
CONTINUOUS
 10
213.075914
 20
419.838437
 11
213.150737
 21
419.686952
  0
LINE
  8
1
 62
7
  6
CONTINUOUS
 10
213.150737
 20
419.686952
 11
213.230342
 21
419.546458
  0
LINE
  8
1
 62
7
  6
CONTINUOUS
 10
213.230342
 20
419.546458
 11
213.310207
 21
419.419881
  0
LINE
  8
1
 62
7
  6
CONTINUOUS
 10
213.310207
 20
419.419881
 11
213.385258
 21
419.310308
  0
LINE
  8
1
 62
7
  6
CONTINUOUS
 10
213.385258
 20
419.310308
 11
213.450335
 21
419.220870
  0
LINE
  8
1
 62
7
  6
CONTINUOUS
 10
213.450335
 20
419.220870
 11
213.500710
 21
419.154497
  0
LINE
  8
1
 62
7
  6
CONTINUOUS
 10
213.500710
 20
419.154497
 11
213.532584
 21
419.113603
  0
LINE
  8
1
 62
7
  6
CONTINUOUS
 10
213.532584
 20
419.113603
 11
213.543492
 21
419.099786
  0
LINE
  8
1
 62
7
  6
CONTINUOUS
 10
213.543492
 20
419.099786
 11
213.554495
 21
419.085937
  0
LINE
  8
1
 62
7
  6
CONTINUOUS
 10
213.554495
 20
419.085937
 11
213.587755
 21
419.044581
  0
LINE
  8
1
 62
7
  6
CONTINUOUS
 10
213.587755
 20
419.044581
 11
213.643934
 21
418.976331
  0
LINE
  8
1
 62
7
  6
CONTINUOUS
 10
213.643934
 20
418.976331
 11
213.723835
 21
418.882322
  0
LINE
  8
1
 62
7
  6
CONTINUOUS
 10
213.723835
 20
418.882322
 11
213.828023
 21
418.764344
  0
LINE
  8
1
 62
7
  6
CONTINUOUS
 10
213.828023
 20
418.764344
 11
213.956396
 21
418.624963
  0
LINE
  8
1
 62
7
  6
CONTINUOUS
 10
213.956396
 20
418.624963
 11
214.107803
 21
418.467599
  0
LINE
  8
1
 62
7
  6
CONTINUOUS
 10
214.107803
 20
418.467599
 11
214.279772
 21
418.296506
  0
LINE
  8
1
 62
7
  6
CONTINUOUS
 10
214.279772
 20
418.296506
 11
214.468408
 21
418.116653
  0
LINE
  8
1
 62
7
  6
CONTINUOUS
 10
214.468408
 20
418.116653
 11
214.668477
 21
417.933509
  0
LINE
  8
1
 62
7
  6
CONTINUOUS
 10
214.668477
 20
417.933509
 11
214.873660
 21
417.752750
  0
LINE
  8
1
 62
7
  6
CONTINUOUS
 10
214.873660
 20
417.752750
 11
215.076928
 21
417.579942
  0
LINE
  8
1
 62
7
  6
CONTINUOUS
 10
215.076928
 20
417.579942
 11
215.270996
 21
417.420241
  0
LINE
  8
1
 62
7
  6
CONTINUOUS
 10
215.270996
 20
417.420241
 11
215.448769
 21
417.278155
  0
LINE
  8
1
 62
7
  6
CONTINUOUS
 10
215.448769
 20
417.278155
 11
215.603742
 21
417.157394
  0
LINE
  8
1
 62
7
  6
CONTINUOUS
 10
215.603742
 20
417.157394
 11
215.730310
 21
417.060829
  0
LINE
  8
1
 62
7
  6
CONTINUOUS
 10
215.730310
 20
417.060829
 11
215.823981
 21
416.990526
  0
LINE
  8
1
 62
7
  6
CONTINUOUS
 10
215.823981
 20
416.990526
 11
215.881495
 21
416.947842
  0
LINE
  8
1
 62
7
  6
CONTINUOUS
 10
215.881495
 20
416.947842
 11
215.900885
 21
416.933533
  0
LINE
  8
1
 62
7
  6
CONTINUOUS
 10
215.900885
 20
416.933533
 11
215.920296
 21
416.919250
  0
LINE
  8
1
 62
7
  6
CONTINUOUS
 10
215.920296
 20
416.919250
 11
215.978123
 21
416.876941
  0
LINE
  8
1
 62
7
  6
CONTINUOUS
 10
215.978123
 20
416.876941
 11
216.073130
 21
416.808186
  0
LINE
  8
1
 62
7
  6
CONTINUOUS
 10
216.073130
 20
416.808186
 11
216.203236
 21
416.715488
  0
LINE
  8
1
 62
7
  6
CONTINUOUS
 10
216.203236
 20
416.715488
 11
216.365475
 21
416.602099
  0
LINE
  8
1
 62
7
  6
CONTINUOUS
 10
216.365475
 20
416.602099
 11
216.555987
 21
416.471812
  0
LINE
  8
1
 62
7
  6
CONTINUOUS
 10
216.555987
 20
416.471812
 11
216.770039
 21
416.328752
  0
LINE
  8
1
 62
7
  6
CONTINUOUS
 10
216.770039
 20
416.328752
 11
217.002084
 21
416.177183
  0
LINE
  8
1
 62
7
  6
CONTINUOUS
 10
217.002084
 20
416.177183
 11
217.245889
 21
416.021359
  0
LINE
  8
1
 62
7
  6
CONTINUOUS
 10
217.245889
 20
416.021359
 11
217.494708
 21
415.865414
  0
LINE
  8
1
 62
7
  6
CONTINUOUS
 10
217.494708
 20
415.865414
 11
217.741510
 21
415.713297
  0
LINE
  8
1
 62
7
  6
CONTINUOUS
 10
217.741510
 20
415.713297
 11
217.979224
 21
415.568741
  0
LINE
  8
1
 62
7
  6
CONTINUOUS
 10
217.979224
 20
415.568741
 11
218.201004
 21
415.435239
  0
LINE
  8
1
 62
7
  6
CONTINUOUS
 10
218.201004
 20
415.435239
 11
218.400465
 21
415.316020
  0
LINE
  8
1
 62
7
  6
CONTINUOUS
 10
218.400465
 20
415.316020
 11
218.571903
 21
415.214009
  0
LINE
  8
1
 62
7
  6
CONTINUOUS
 10
218.571903
 20
415.214009
 11
218.710462
 21
415.131767
  0
LINE
  8
1
 62
7
  6
CONTINUOUS
 10
218.710462
 20
415.131767
 11
218.812261
 21
415.071412
  0
LINE
  8
1
 62
7
  6
CONTINUOUS
 10
218.812261
 20
415.071412
 11
218.874481
 21
415.034537
  0
LINE
  8
1
 62
7
  6
CONTINUOUS
 10
218.874481
 20
415.034537
 11
218.895411
 21
415.022133
  0
ARC
  8
1
 62
7
  6
CONTINUOUS
 10
216.557162
 20
422.774610
 40
3.554171
 50
78.668113
 51
129.659067
  0
LINE
  8
1
 62
7
  6
CONTINUOUS
 10
214.409822
 20
418.181824
 11
214.417772
 21
418.204564
  0
LINE
  8
1
 62
7
  6
CONTINUOUS
 10
214.417772
 20
418.204564
 11
214.441407
 21
418.272158
  0
LINE
  8
1
 62
7
  6
CONTINUOUS
 10
214.441407
 20
418.272158
 11
214.480070
 21
418.382711
  0
LINE
  8
1
 62
7
  6
CONTINUOUS
 10
214.480070
 20
418.382711
 11
214.532676
 21
418.533026
  0
LINE
  8
1
 62
7
  6
CONTINUOUS
 10
214.532676
 20
418.533026
 11
214.597711
 21
418.718579
  0
LINE
  8
1
 62
7
  6
CONTINUOUS
 10
214.597711
 20
418.718579
 11
214.673265
 21
418.933555
  0
LINE
  8
1
 62
7
  6
CONTINUOUS
 10
214.673265
 20
418.933555
 11
214.757076
 21
419.170979
  0
LINE
  8
1
 62
7
  6
CONTINUOUS
 10
214.757076
 20
419.170979
 11
214.846601
 21
419.422974
  0
LINE
  8
1
 62
7
  6
CONTINUOUS
 10
214.846601
 20
419.422974
 11
214.939121
 21
419.681137
  0
LINE
  8
1
 62
7
  6
CONTINUOUS
 10
214.939121
 20
419.681137
 11
215.031855
 21
419.937009
  0
LINE
  8
1
 62
7
  6
CONTINUOUS
 10
215.031855
 20
419.937009
 11
215.122085
 21
420.182581
  0
LINE
  8
1
 62
7
  6
CONTINUOUS
 10
215.122085
 20
420.182581
 11
215.207280
 21
420.410757
  0
LINE
  8
1
 62
7
  6
CONTINUOUS
 10
215.207280
 20
420.410757
 11
215.285186
 21
420.615717
  0
LINE
  8
1
 62
7
  6
CONTINUOUS
 10
215.285186
 20
420.615717
 11
215.353905
 21
420.793100
  0
LINE
  8
1
 62
7
  6
CONTINUOUS
 10
215.353905
 20
420.793100
 11
215.411913
 21
420.940007
  0
LINE
  8
1
 62
7
  6
CONTINUOUS
 10
215.411913
 20
420.940007
 11
215.458061
 21
421.054809
  0
LINE
  8
1
 62
7
  6
CONTINUOUS
 10
215.458061
 20
421.054809
 11
215.491537
 21
421.136831
  0
LINE
  8
1
 62
7
  6
CONTINUOUS
 10
215.491537
 20
421.136831
 11
215.511815
 21
421.185969
  0
LINE
  8
1
 62
7
  6
CONTINUOUS
 10
215.511815
 20
421.185969
 11
215.518605
 21
421.202326
  0
LINE
  8
1
 62
7
  6
CONTINUOUS
 10
215.518605
 20
421.202326
 11
215.525379
 21
421.218595
  0
LINE
  8
1
 62
7
  6
CONTINUOUS
 10
215.525379
 20
421.218595
 11
215.545428
 21
421.266452
  0
LINE
  8
1
 62
7
  6
CONTINUOUS
 10
215.545428
 20
421.266452
 11
215.577974
 21
421.343167
  0
LINE
  8
1
 62
7
  6
CONTINUOUS
 10
215.577974
 20
421.343167
 11
215.621859
 21
421.444603
  0
LINE
  8
1
 62
7
  6
CONTINUOUS
 10
215.621859
 20
421.444603
 11
215.675714
 21
421.565735
  0
LINE
  8
1
 62
7
  6
CONTINUOUS
 10
215.675714
 20
421.565735
 11
215.738123
 21
421.701234
  0
LINE
  8
1
 62
7
  6
CONTINUOUS
 10
215.738123
 20
421.701234
 11
215.807748
 21
421.845985
  0
LINE
  8
1
 62
7
  6
CONTINUOUS
 10
215.807748
 20
421.845985
 11
215.883371
 21
421.995467
  0
LINE
  8
1
 62
7
  6
CONTINUOUS
 10
215.883371
 20
421.995467
 11
215.963844
 21
422.145919
  0
LINE
  8
1
 62
7
  6
CONTINUOUS
 10
215.963844
 20
422.145919
 11
216.047958
 21
422.294297
  0
LINE
  8
1
 62
7
  6
CONTINUOUS
 10
216.047958
 20
422.294297
 11
216.134271
 21
422.438067
  0
LINE
  8
1
 62
7
  6
CONTINUOUS
 10
216.134271
 20
422.438067
 11
216.220942
 21
422.574911
  0
LINE
  8
1
 62
7
  6
CONTINUOUS
 10
216.220942
 20
422.574911
 11
216.305625
 21
422.702436
  0
LINE
  8
1
 62
7
  6
CONTINUOUS
 10
216.305625
 20
422.702436
 11
216.385471
 21
422.817986
  0
LINE
  8
1
 62
7
  6
CONTINUOUS
 10
216.385471
 20
422.817986
 11
216.457251
 21
422.918612
  0
LINE
  8
1
 62
7
  6
CONTINUOUS
 10
216.457251
 20
422.918612
 11
216.517608
 21
423.001204
  0
LINE
  8
1
 62
7
  6
CONTINUOUS
 10
216.517608
 20
423.001204
 11
216.563387
 21
423.062780
  0
LINE
  8
1
 62
7
  6
CONTINUOUS
 10
216.563387
 20
423.062780
 11
216.591997
 21
423.100843
  0
LINE
  8
1
 62
7
  6
CONTINUOUS
 10
216.591997
 20
423.100843
 11
216.601732
 21
423.113725
  0
LINE
  8
1
 62
7
  6
CONTINUOUS
 10
216.601732
 20
423.113725
 11
216.611523
 21
423.126649
  0
LINE
  8
1
 62
7
  6
CONTINUOUS
 10
216.611523
 20
423.126649
 11
216.640960
 21
423.165308
  0
LINE
  8
1
 62
7
  6
CONTINUOUS
 10
216.640960
 20
423.165308
 11
216.690173
 21
423.229327
  0
LINE
  8
1
 62
7
  6
CONTINUOUS
 10
216.690173
 20
423.229327
 11
216.759197
 21
423.317959
  0
LINE
  8
1
 62
7
  6
CONTINUOUS
 10
216.759197
 20
423.317959
 11
216.847734
 21
423.429940
  0
LINE
  8
1
 62
7
  6
CONTINUOUS
 10
216.847734
 20
423.429940
 11
216.954906
 21
423.563332
  0
LINE
  8
1
 62
7
  6
CONTINUOUS
 10
216.954906
 20
423.563332
 11
217.079041
 21
423.715407
  0
LINE
  8
1
 62
7
  6
CONTINUOUS
 10
217.079041
 20
423.715407
 11
217.217547
 21
423.882594
  0
LINE
  8
1
 62
7
  6
CONTINUOUS
 10
217.217547
 20
423.882594
 11
217.366907
 21
424.060521
  0
LINE
  8
1
 62
7
  6
CONTINUOUS
 10
217.366907
 20
424.060521
 11
217.522790
 21
424.244150
  0
LINE
  8
1
 62
7
  6
CONTINUOUS
 10
217.522790
 20
424.244150
 11
217.680279
 21
424.427987
  0
LINE
  8
1
 62
7
  6
CONTINUOUS
 10
217.680279
 20
424.427987
 11
217.834165
 21
424.606354
  0
LINE
  8
1
 62
7
  6
CONTINUOUS
 10
217.834165
 20
424.606354
 11
217.979260
 21
424.773666
  0
LINE
  8
1
 62
7
  6
CONTINUOUS
 10
217.979260
 20
424.773666
 11
218.110704
 21
424.924703
  0
LINE
  8
1
 62
7
  6
CONTINUOUS
 10
218.110704
 20
424.924703
 11
218.224194
 21
425.054824
  0
LINE
  8
1
 62
7
  6
CONTINUOUS
 10
218.224194
 20
425.054824
 11
218.316147
 21
425.160125
  0
LINE
  8
1
 62
7
  6
CONTINUOUS
 10
218.316147
 20
425.160125
 11
218.383782
 21
425.237535
  0
LINE
  8
1
 62
7
  6
CONTINUOUS
 10
218.383782
 20
425.237535
 11
218.425136
 21
425.284857
  0
LINE
  8
1
 62
7
  6
CONTINUOUS
 10
218.425136
 20
425.284857
 11
218.439048
 21
425.300777
  0
LINE
  8
1
 62
7
  6
CONTINUOUS
 10
216.865691
 20
425.794216
 11
216.849830
 21
425.776521
  0
LINE
  8
1
 62
7
  6
CONTINUOUS
 10
216.849830
 20
425.776521
 11
216.802684
 21
425.723919
  0
LINE
  8
1
 62
7
  6
CONTINUOUS
 10
216.802684
 20
425.723919
 11
216.725574
 21
425.637840
  0
LINE
  8
1
 62
7
  6
CONTINUOUS
 10
216.725574
 20
425.637840
 11
216.620726
 21
425.520620
  0
LINE
  8
1
 62
7
  6
CONTINUOUS
 10
216.620726
 20
425.520620
 11
216.491290
 21
425.375427
  0
LINE
  8
1
 62
7
  6
CONTINUOUS
 10
216.491290
 20
425.375427
 11
216.341311
 21
425.206169
  0
LINE
  8
1
 62
7
  6
CONTINUOUS
 10
216.341311
 20
425.206169
 11
216.175636
 21
425.017384
  0
LINE
  8
1
 62
7
  6
CONTINUOUS
 10
216.175636
 20
425.017384
 11
215.999741
 21
424.814125
  0
LINE
  8
1
 62
7
  6
CONTINUOUS
 10
215.999741
 20
424.814125
 11
215.819467
 21
424.601829
  0
LINE
  8
1
 62
7
  6
CONTINUOUS
 10
215.819467
 20
424.601829
 11
215.640696
 21
424.386187
  0
LINE
  8
1
 62
7
  6
CONTINUOUS
 10
215.640696
 20
424.386187
 11
215.469008
 21
424.173011
  0
LINE
  8
1
 62
7
  6
CONTINUOUS
 10
215.469008
 20
424.173011
 11
215.309356
 21
423.968086
  0
LINE
  8
1
 62
7
  6
CONTINUOUS
 10
215.309356
 20
423.968086
 11
215.165821
 21
423.777032
  0
LINE
  8
1
 62
7
  6
CONTINUOUS
 10
215.165821
 20
423.777032
 11
215.041477
 21
423.605145
  0
LINE
  8
1
 62
7
  6
CONTINUOUS
 10
215.041477
 20
423.605145
 11
214.938397
 21
423.457250
  0
LINE
  8
1
 62
7
  6
CONTINUOUS
 10
214.938397
 20
423.457250
 11
214.857767
 21
423.337547
  0
LINE
  8
1
 62
7
  6
CONTINUOUS
 10
214.857767
 20
423.337547
 11
214.800113
 21
423.249473
  0
LINE
  8
1
 62
7
  6
CONTINUOUS
 10
214.800113
 20
423.249473
 11
214.765553
 21
423.195580
  0
LINE
  8
1
 62
7
  6
CONTINUOUS
 10
214.765553
 20
423.195580
 11
214.754045
 21
423.177439
  0
LINE
  8
1
 62
7
  6
CONTINUOUS
 10
214.754045
 20
423.177439
 11
214.742597
 21
423.159292
  0
LINE
  8
1
 62
7
  6
CONTINUOUS
 10
214.742597
 20
423.159292
 11
214.708915
 21
423.105315
  0
LINE
  8
1
 62
7
  6
CONTINUOUS
 10
214.708915
 20
423.105315
 11
214.654921
 21
423.016938
  0
LINE
  8
1
 62
7
  6
CONTINUOUS
 10
214.654921
 20
423.016938
 11
214.583606
 21
422.896621
  0
LINE
  8
1
 62
7
  6
CONTINUOUS
 10
214.583606
 20
422.896621
 11
214.498733
 21
422.747945
  0
LINE
  8
1
 62
7
  6
CONTINUOUS
 10
214.498733
 20
422.747945
 11
214.404501
 21
422.575630
  0
LINE
  8
1
 62
7
  6
CONTINUOUS
 10
214.404501
 20
422.575630
 11
214.305182
 21
422.385469
  0
LINE
  8
1
 62
7
  6
CONTINUOUS
 10
214.305182
 20
422.385469
 11
214.204807
 21
422.184113
  0
LINE
  8
1
 62
7
  6
CONTINUOUS
 10
214.204807
 20
422.184113
 11
214.106914
 21
421.978716
  0
LINE
  8
1
 62
7
  6
CONTINUOUS
 10
214.106914
 20
421.978716
 11
214.014389
 21
421.776473
  0
LINE
  8
1
 62
7
  6
CONTINUOUS
 10
214.014389
 20
421.776473
 11
213.929407
 21
421.584114
  0
LINE
  8
1
 62
7
  6
CONTINUOUS
 10
213.929407
 20
421.584114
 11
213.853456
 21
421.407421
  0
LINE
  8
1
 62
7
  6
CONTINUOUS
 10
213.853456
 20
421.407421
 11
213.787428
 21
421.250876
  0
LINE
  8
1
 62
7
  6
CONTINUOUS
 10
213.787428
 20
421.250876
 11
213.731744
 21
421.117487
  0
LINE
  8
1
 62
7
  6
CONTINUOUS
 10
213.731744
 20
421.117487
 11
213.686501
 21
421.008828
  0
LINE
  8
1
 62
7
  6
CONTINUOUS
 10
213.686501
 20
421.008828
 11
213.651602
 21
420.925284
  0
LINE
  8
1
 62
7
  6
CONTINUOUS
 10
213.651602
 20
420.925284
 11
213.626865
 21
420.866448
  0
LINE
  8
1
 62
7
  6
CONTINUOUS
 10
213.626865
 20
420.866448
 11
213.612109
 21
420.831584
  0
LINE
  8
1
 62
7
  6
CONTINUOUS
 10
213.612109
 20
420.831584
 11
213.607205
 21
420.820046
  0
LINE
  8
1
 62
7
  6
CONTINUOUS
 10
213.607205
 20
420.820046
 11
213.602332
 21
420.808604
  0
LINE
  8
1
 62
7
  6
CONTINUOUS
 10
213.602332
 20
420.808604
 11
213.588022
 21
420.775158
  0
LINE
  8
1
 62
7
  6
CONTINUOUS
 10
213.588022
 20
420.775158
 11
213.565160
 21
420.722217
  0
LINE
  8
1
 62
7
  6
CONTINUOUS
 10
213.565160
 20
420.722217
 11
213.535104
 21
420.653583
  0
LINE
  8
1
 62
7
  6
CONTINUOUS
 10
213.535104
 20
420.653583
 11
213.499516
 21
420.573841
  0
LINE
  8
1
 62
7
  6
CONTINUOUS
 10
213.499516
 20
420.573841
 11
213.460186
 21
420.487798
  0
LINE
  8
1
 62
7
  6
CONTINUOUS
 10
213.460186
 20
420.487798
 11
213.418850
 21
420.399943
  0
LINE
  8
1
 62
7
  6
CONTINUOUS
 10
213.418850
 20
420.399943
 11
213.377061
 21
420.314034
  0
LINE
  8
1
 62
7
  6
CONTINUOUS
 10
213.377061
 20
420.314034
 11
213.336095
 21
420.232858
  0
LINE
  8
1
 62
7
  6
CONTINUOUS
 10
213.336095
 20
420.232858
 11
213.296935
 21
420.158193
  0
LINE
  8
1
 62
7
  6
CONTINUOUS
 10
213.296935
 20
420.158193
 11
213.260294
 21
420.090936
  0
LINE
  8
1
 62
7
  6
CONTINUOUS
 10
213.260294
 20
420.090936
 11
213.226686
 21
420.031355
  0
LINE
  8
1
 62
7
  6
CONTINUOUS
 10
213.226686
 20
420.031355
 11
213.196502
 21
419.979386
  0
LINE
  8
1
 62
7
  6
CONTINUOUS
 10
213.196502
 20
419.979386
 11
213.170083
 21
419.934897
  0
LINE
  8
1
 62
7
  6
CONTINUOUS
 10
213.170083
 20
419.934897
 11
213.147770
 21
419.897875
  0
LINE
  8
1
 62
7
  6
CONTINUOUS
 10
213.147770
 20
419.897875
 11
213.129912
 21
419.868495
  0
LINE
  8
1
 62
7
  6
CONTINUOUS
 10
213.129912
 20
419.868495
 11
213.116851
 21
419.847092
  0
LINE
  8
1
 62
7
  6
CONTINUOUS
 10
213.116851
 20
419.847092
 11
213.108880
 21
419.834048
  0
LINE
  8
1
 62
7
  6
CONTINUOUS
 10
213.108880
 20
419.834048
 11
213.106199
 21
419.829662
  0
ARC
  8
1
 62
7
  6
CONTINUOUS
 10
220.948334
 20
422.789847
 40
5.067078
 50
29.933117
 51
143.918311
  0
LINE
  8
15
 62
96
  6
CONTINUOUS
 10
620.173997
 20
500.138608
 11
800.227081
 21
500.138608
  0
LINE
  8
15
 62
96
  6
CONTINUOUS
 10
620.173997
 20
489.135364
 11
800.227081
 21
489.135364
  0
LINE
  8
15
 62
96
  6
CONTINUOUS
 10
800.227081
 20
478.132120
 11
620.173997
 21
478.132120
  0
LINE
  8
15
 62
96
  6
CONTINUOUS
 10
620.173997
 20
467.128876
 11
800.227081
 21
467.128876
  0
LINE
  8
15
 62
96
  6
CONTINUOUS
 10
620.173997
 20
456.125632
 11
800.227081
 21
456.125632
  0
LINE
  8
15
 62
96
  6
CONTINUOUS
 10
620.173997
 20
445.122388
 11
800.227081
 21
445.122388
  0
TEXT
  8
15
 62
96
  6
DIVIDE
 10
636.178716
 20
491.636101
 40
6.001769
 41
0.833333
  1
品　名
  7
KANJI
 50
0.000000
 51
0.000000
  0
TEXT
  8
15
 62
96
  6
DIVIDE
 10
752.642216
 20
491.636101
 40
6.001769
 41
0.833333
  1
商品コード
  7
KANJI
 50
0.000000
 51
0.000000
  0
TEXT
  8
15
 62
96
  6
CONTINUOUS
 10
693.483102
 20
491.636101
 40
6.001769
 41
0.833333
  1
形　式
  7
KANJI
 50
0.000000
 51
0.000000
  0
LINE
  8
15
 62
96
  6
CONTINUOUS
 10
620.173997
 20
434.119144
 11
800.227081
 21
434.119144
  0
LINE
  8
15
 62
96
  6
CONTINUOUS
 10
735.066198
 20
500.165558
 11
735.066198
 21
434.119144
  0
LINE
  8
15
 62
96
  6
CONTINUOUS
 10
669.905314
 20
500.165558
 11
669.905314
 21
434.119144
  0
LINE
  8
15
 62
96
  6
CONTINUOUS
 10
620.173997
 20
511.141852
 11
800.227081
 21
511.141852
  0
TEXT
  8
15
 62
96
  6
DIVIDE
 10
701.197885
 20
524.645833
 40
6.001769
 41
0.833333
  1
仕　様
  7
KANJI
 50
0.000000
 51
0.000000
  0
TEXT
  8
15
 62
96
  6
DIVIDE
 10
633.177831
 20
513.642589
 40
6.001769
 41
0.833333
  1
公称電圧
  7
KANJI
 50
0.000000
 51
0.000000
  0
LINE
  8
15
 62
96
  6
CONTINUOUS
 10
669.905314
 20
544.151584
 11
669.905314
 21
533.148340
  0
LINE
  8
15
 62
96
  6
CONTINUOUS
 10
669.905314
 20
522.145096
 11
669.905314
 21
511.141852
  0
LINE
  8
15
 62
96
  6
CONTINUOUS
 10
620.173997
 20
522.145096
 11
800.227081
 21
522.145096
  0
TEXT
  8
15
 62
96
  6
DIVIDE
 10
726.063543
 20
513.642589
 40
6.001769
 41
0.576923
  1
DC12Ｖ
  7
KANJI
 50
0.000000
 51
0.000000
  0
TEXT
  8
15
 62
96
  6
DIVIDE
 10
633.177831
 20
480.632857
 40
6.001769
 41
0.714286
  1
10回線用
  7
KANJI
 50
0.000000
 51
0.000000
  0
TEXT
  8
15
 62
96
  6
DIVIDE
 10
627.176062
 20
469.629613
 40
6.001769
 41
0.681818
  1
15・20回線用
  7
KANJI
 50
0.000000
 51
0.000000
  0
TEXT
  8
15
 62
96
  6
DIVIDE
 10
627.176062
 20
458.626369
 40
6.001769
 41
0.681818
  1
25・30回線用
  7
KANJI
 50
0.000000
 51
0.000000
  0
TEXT
  8
15
 62
96
  6
DIVIDE
 10
633.177831
 20
447.623125
 40
6.001769
 41
0.714286
  1
40回線用
  7
KANJI
 50
0.000000
 51
0.000000
  0
TEXT
  8
15
 62
96
  6
DIVIDE
 10
633.177831
 20
436.619881
 40
6.001769
 41
0.714286
  1
50回線用
  7
KANJI
 50
0.000000
 51
0.000000
  0
TEXT
  8
15
 62
96
  6
CONTINUOUS
 10
694.983544
 20
480.632857
 40
6.001769
 41
0.500000
  1
LBT10
  7
KANJI
 50
0.000000
 51
0.000000
  0
TEXT
  8
15
 62
96
  6
CONTINUOUS
 10
694.983544
 20
469.629613
 40
6.001769
 41
0.500000
  1
LBT20
  7
KANJI
 50
0.000000
 51
0.000000
  0
TEXT
  8
15
 62
96
  6
CONTINUOUS
 10
694.983544
 20
458.626369
 40
6.001769
 41
0.500000
  1
LBT30
  7
KANJI
 50
0.000000
 51
0.000000
  0
TEXT
  8
15
 62
96
  6
CONTINUOUS
 10
694.983544
 20
447.623125
 40
6.001769
 41
0.500000
  1
LBT40
  7
KANJI
 50
0.000000
 51
0.000000
  0
TEXT
  8
15
 62
96
  6
CONTINUOUS
 10
694.983544
 20
436.619881
 40
6.001769
 41
0.500000
  1
LBT50
  7
KANJI
 50
0.000000
 51
0.000000
  0
TEXT
  8
15
 62
96
  6
DIVIDE
 10
757.143543
 20
480.632857
 40
6.001769
 41
0.500000
  1
0106041
  7
KANJI
 50
0.000000
 51
0.000000
  0
TEXT
  8
15
 62
96
  6
DIVIDE
 10
757.143543
 20
469.629613
 40
6.001769
 41
0.500000
  1
0106042
  7
KANJI
 50
0.000000
 51
0.000000
  0
TEXT
  8
15
 62
96
  6
DIVIDE
 10
757.143543
 20
458.626369
 40
6.001769
 41
0.500000
  1
0106043
  7
KANJI
 50
0.000000
 51
0.000000
  0
TEXT
  8
15
 62
96
  6
DIVIDE
 10
757.143543
 20
447.623125
 40
6.001769
 41
0.500000
  1
0106044
  7
KANJI
 50
0.000000
 51
0.000000
  0
TEXT
  8
15
 62
96
  6
DIVIDE
 10
757.143543
 20
436.619881
 40
6.001769
 41
0.500000
  1
0106045
  7
KANJI
 50
0.000000
 51
0.000000
  0
LINE
  8
1
 62
7
  6
CONTINUOUS
 10
416.382844
 20
450.637739
 11
243.476171
 21
450.637739
  0
LINE
  8
1
 62
7
  6
DASHDOT
 10
328.705882
 20
325.087958
 11
328.705882
 21
162.182299
  0
TEXT
  8
15
 62
96
  6
CONTINUOUS
 10
684.391889
 20
105.022118
 40
10.002949
 41
0.900000
  1
－－－－－
  7
KANJI
 50
0.000000
 51
0.000000
  0
TEXT
  8
15
 62
96
  6
CONTINUOUS
 10
386.140130
 20
37.869057
 40
6.000000
 41
0.944444
  1
＊　記載されている会社名、製品名は、登録商標または商標です。
  7
KANJI
 50
0.000000
 51
0.000000
  0
TEXT
  8
15
 62
96
  6
CONTINUOUS
 10
658.325091
 20
87.887221
 40
10.002949
 41
0.900000
  1
ＢＡＮ－Ｌ用バッテリ
  7
KANJI
 50
0.000000
 51
0.000000
  0
TEXT
  8
15
 62
96
  6
DIVIDE
 10
692.195231
 20
502.639345
 40
6.001769
 41
0.833333
  1
内臓バッテリ
  7
KANJI
 50
0.000000
 51
0.000000
  0
LINE
  8
1
 62
7
  6
CONTINUOUS
 10
434.705882
 20
216.415541
 11
434.705882
 21
171.415541
  0
LINE
  8
1
 62
7
  6
CONTINUOUS
 10
438.705882
 20
216.415541
 11
415.705882
 21
216.415541
  0
LINE
  8
1
 62
7
  6
CONTINUOUS
 10
438.705882
 20
171.415541
 11
415.705882
 21
171.415541
  0
LINE
  8
1
 62
7
  6
CONTINUOUS
 10
434.705882
 20
216.415541
 11
435.948214
 21
211.779097
  0
LINE
  8
1
 62
7
  6
CONTINUOUS
 10
434.705882
 20
216.415541
 11
433.463551
 21
211.779097
  0
LINE
  8
1
 62
7
  6
CONTINUOUS
 10
434.705882
 20
171.415541
 11
433.463551
 21
176.051985
  0
LINE
  8
1
 62
7
  6
CONTINUOUS
 10
434.705882
 20
171.415541
 11
435.948214
 21
176.051985
  0
TEXT
  8
1
 62
7
  6
CONTINUOUS
 10
433.705882
 20
190.715541
 40
6.000000
 41
0.566667
  1
45
  7
KANJI
 50
90.000000
 51
0.000000
  0
LINE
  8
1
 62
7
  6
CONTINUOUS
 10
242.705882
 20
151.415541
 11
414.705882
 21
151.415541
  0
LINE
  8
1
 62
7
  6
CONTINUOUS
 10
242.705882
 20
147.415541
 11
242.705882
 21
170.415541
  0
LINE
  8
1
 62
7
  6
CONTINUOUS
 10
414.705882
 20
147.415541
 11
414.705882
 21
170.415541
  0
LINE
  8
1
 62
7
  6
CONTINUOUS
 10
242.705882
 20
151.415541
 11
247.342326
 21
152.657873
  0
LINE
  8
1
 62
7
  6
CONTINUOUS
 10
242.705882
 20
151.415541
 11
247.342326
 21
150.173210
  0
LINE
  8
1
 62
7
  6
CONTINUOUS
 10
414.705882
 20
151.415541
 11
410.069438
 21
150.173210
  0
LINE
  8
1
 62
7
  6
CONTINUOUS
 10
414.705882
 20
151.415541
 11
410.069438
 21
152.657873
  0
TEXT
  8
1
 62
7
  6
CONTINUOUS
 10
323.805882
 20
152.415541
 40
6.000000
 41
0.566667
  1
172
  7
KANJI
 50
0.000000
 51
0.000000
  0
ENDSEC
  0
EOF
